Gungor

Ezekiel

Gungor

chords Easy easy

by  JOV-CORREA

save to print version add songbook text version e-mail correct tuner
chordsukulelecavacokeyboardtabbassdrumsharmonicaflute Guitar Pro
close

there isn't a video lesson for this song

chords

Ezekiel

	  		Song :Ezekiel 
Artist: Gungor  
Album: Ghosts Upon the Earth (Deluxe Edition) 
Note: It sounds best when picked listen to the song Michael uses a really simple picking stile. 
Key: D 

  Bm    D    G    Em    A 
E--2----2----3----3-----0-----------------------------------| 
B--3----3----3----3-----2-----------------------------------| 
G--4----2----0----0-----2-----------------------------------| 
D--4----0----0----2-----2-----------------------------------| 
A--2---------2----2-----0-----------------------------------| 
E------------3----0-----0-----------------------------------| 

Intro riff: 
E----------------------------------------------------------| 
B-----------------2----------------------------------------| 
G----------4-----------------------------------------------| 
D--2---4------4-------4---2---0----------------------------| 
A----------0------0----------------------------------------| 
E--2---3------3-------3---3---3----------------------------|
tab
Verse:1 Bm D G I found you naked G Em A I found you lying there D G In blood Bm D Your mother left you G Em A Your father threw you out D G Unloved Intro riff Verse: 2 Bm D I clothed your body G Em A I washed the blood and dirt D G From your hair Bm D I gave you jewelry G Em A I gave you everything D G I had. Chorus: 2 A Bm A G I gave My heart A Bm A G My heart My love A Bm A G I gave My heart A Bm A Bm My heart My love Verse: 3 Bm D You became like G Em A D G You were a stunning Bride Bm D The world, they saw you G Em A And how you loved their wives D G My Bride Chorus: 2 A Bm A G You broke My heart A Bm A G My heart My love A Bm A G You broke My heart A Bm A G My heart My love Interlude: (repeat) Bm D G Em A D OOOhhh? Verse: 4 Bm D You sold your body G Em A Exposed to all D G My love Bm D You slept with Stranger G Em A You gave them everything D G We had Chorus: 3 A Bm A G Come back My love A Bm A G My love come back A Bm A G Come back My love A Bm A G My love come back Intro riff

Full key step upFull key step up
Half key step upHalf key step up
Half key step downHalf key step down
Full key step downFull key step down
are you left-handed?
hide glossary

See also:

chords Kari Jobe - Revelation Song chords Jeremy Camp - Beautiful One chords Israel Houghton - You Are Good chords Jeremy Camp - I still believe chords Jars of Clay - I Could Sing Of Your Love Forever chords Mercy Me - I can only imagine
e-chords

Other versions:

chords Gungor - Ezekiel
auto scroll beats size up size down change color hide chords simplify chords drawings columns
tab show chords e-chords YouTube Clip e-chords hide all tabs e-chords go to top tab

share with facebook