Gin Wigmore

home > Gin Wigmore

24 Chords

Gin Wigmore

Difficulty: nolevelnolevel

by educastilho

tuner correct add songbook print version text version save to e-mail
chordsukulelecavacokeyboardtabbassdrumsharmonicsflute Guitar Pro
chords

24

  		
                 ^                                 ^                    
E |--10.9.-7.-5.-2-------------|----|-----------2.-0-------------|----| 
B |--------------3-------------|----|--0.-2.-3.----0-------------|----| 
G |--------------4-------------|----|--------------0-------------|----| 
D |--------------4-------------|----|--------------2-------------|----| 
A |----------------------------|----|--------------2-------------|----| 
E |----------------------------|----|----------------------------|----| 

              ^                                 ^                    
--0.-2.-3.-1.-2-------------|----|--2.-0.---------------------|----| 
--------------3-------------|----|--------3.-2.-0-------------|----| 
--------------4-------------|----|--------------4-------------|----| 
--------------4-------------|----|--------------4-------------|----| 
----------------------------|----|--------------2-------------|----| 
----------------------------|----|----------------------------|----| 

              ^                                             ^               
--------------2-----2M------|--2M-2M-2M-2M---|-----------2.-0-----0M------| 
--0.-2.-3.-0.-3-------------|----------------|--0.-2.-3.----0-------------| 
--------------4-------------|----------------|--------------0-------------| 
--------------4-------------|----------------|--------------2-------------| 
----------------------------|----------------|--------------2-------------| 
----------------------------|----------------|----------------------------| 

                               ^                                
--0M-0M-0M-0M---|--0.-2.-3.-0.-2-----2M------|--2M-2M-2M-2M---| 
----------------|--------------3-------------|----------------| 
----------------|--------------4-------------|----------------| 
----------------|--------------4-------------|----------------| 
----------------|----------------------------|----------------| 
----------------|----------------------------|----------------| 

              ^     n         
--2.-0.---------------------| 
--------3.-2.-0-----0>------| 
--------------4-----4.------| 
--------------4-----4.------| 
--------------2-----2.------| 
----------------------------| 

Ghost notes suggest some sort of Fade in. 
                                                      
----------------------------------------------------| 
----------------------------------------------------| 
--------------------------4g-4g-4g-4g-4g-4g-4g-4g---| 
--------------------------4g-4g-4g-4g-4g-4g-4g-4g---| 
--------------------------2g-2g-2g-2g-2g-2g-2g-2g---| 
----------------------------------------------------| 

                                                      
----------------------------------------------------| 
----------------------------------------------------| 
--4g-4g-4g-4g-4g-4g-4g-4g-4-----4-----4-----4-------| 
--4g-4g-4g-4g-4g-4g-4g-4g-4-----4-----4-----4-------| 
--2g-2g-2g-2g-2g-2g-2g-2g-2-----2-----2-----2-------| 
----------------------------------------------------| 

                                                           
----------------------------|----------------------------| 
----------------------------|----------------------------| 
--4--4--4--4--4--4--4--4----|----------------------------| 
--4--4--4--4--4--4--4--4----|-----------2--5--5--5--5----| 
--2--2--2--2--2--2--2--2----|--2--4--5-----5--5--5--5----| 
----------------------------|--------------3--3--3--3----| 

                                                           
----------------------------|----------------------------| 
----------------------------|----------------------------| 
----------------------------|----------------------------| 
--5--5--5--5--5--5--5--5----|-----------2--2--2--2--2----| 
--5--5--5--5--5--5--5--5----|--2--4--5-----2--2--2--2----| 
--3--3--3--3--3--3--3--3----|--------------0--0--0--0----| 

                                                           
----------------------------|----------------------------| 
----------------------------|----------------------------| 
--------------2--2--2--2----|--2--2--2--2--4--4--4--4----| 
--2--2--2--2--2--2--2--2----|--2--2--2--2--4--4--4--4----| 
--2--2--2--2--0--0--0--0----|--0--0--0--0--2--2--2--2----| 
--0--0--0--0----------------|----------------------------| 

                                           ^                                
----------------------------|--------------2-----2>------|--2>-2>-2>-2>---| 
----------------------------|--0.-2.-3.-0.-3-------------|----------------| 
--4--4--4--4--4--4--4--4----|--------------4-------------|----------------| 
--4--4--4--4--4--4--4--4----|--------------4-------------|----------------| 
--2--2--2--2--2--2--2--2----|----------------------------|----------------| 
----------------------------|----------------------------|----------------| 

              ^                                             ^               
-----------2.-0-----0>------|--0>-0>-0>-0>---|--0.-2.-3.-0.-2-----2>------| 
--0.-2.-3.----0-------------|----------------|--------------3-------------| 
--------------0-------------|----------------|--------------4-------------| 
--------------2-------------|----------------|--------------4-------------| 
--------------2-------------|----------------|----------------------------| 
----------------------------|----------------|----------------------------| 

                               ^                                
--2>-2>-2>-2>---|--2.-0.---------------------|----------------| 
----------------|--------3.-2.-0-----0>------|--0>-0>-0>-0>---| 
----------------|--------------4-------------|----------------| 
----------------|--------------4-------------|----------------| 
----------------|--------------2-------------|----------------| 
----------------|----------------------------|----------------| 

              ^                                             ^               
--------------2-----2>------|--2>-2>-2>-2>---|-----------2.-0-----0>------| 
--0.-2.-3.-0.-3-------------|----------------|--0.-2.-3.----0-------------| 
--------------4-------------|----------------|--------------0-------------| 
--------------4-------------|----------------|--------------2-------------| 
----------------------------|----------------|--------------2-------------| 
----------------------------|----------------|----------------------------| 

                               ^                                
--0>-0>-0>-0>---|--0.-2.-3.-0.-2-----2>------|--2>-2>-2>-2>---| 
----------------|--------------3-------------|----------------| 
----------------|--------------4-------------|----------------| 
----------------|--------------4-------------|----------------| 
----------------|----------------------------|----------------| 
----------------|----------------------------|----------------| 

              ^                   =  =  =  =               
--2.-0.---------------------|----------------------------| 
--------3.-2.-0-------------|----------------------------| 
--------------4-------------|--4--4--4--4--4L------------| 
--------------4-------------|----------------------------| 
--------------2-------------|----------------------------| 
----------------------------|----------------------------| 

Tremollo bend. 
                                                           
----------------------------|----------------------------| 
----------------------------|----------------------------| 
--4b----------4--4--4--4----|--4--4--4--4--4--4--4--4----| 
--------------4--4--4--4----|--4--4--4--4--4--4--4--4----| 
--------------2--2--2--2----|--2--2--2--2--2--2--2--2----| 
----------------------------|----------------------------| 

                                                           
----------------------------|----------------------------| 
----------------------------|----------------------------| 
----------------------------|----------------------------| 
-----------2--5--5--5--5----|--5--5--5--5--5--5--5--5----| 
--2--4--5-----5--5--5--5----|--5--5--5--5--5--5--5--5----| 
--------------3--3--3--3----|--3--3--3--3--3--3--3--3----| 

                                                           
----------------------------|----------------------------| 
----------------------------|----------------------------| 
----------------------------|--------------2--2--2--2----| 
-----------2--2--2--2--2----|--2--2--2--2--2--2--2--2----| 
--2--4--5-----2--2--2--2----|--2--2--2--2--0--0--0--0----| 
--------------0--0--0--0----|--0--0--0--0----------------| 

                                                           
----------------------------|----------------------------| 
----------------------------|----------------------------| 
--2--2--2--2--4--4--4--4----|--4--4--4--4--4--4--4--4----| 
--2--2--2--2--4--4--4--4----|--4--4--4--4--4--4--4--4----| 
--0--0--0--0--2--2--2--2----|--2--2--2--2--2--2--2--2----| 
----------------------------|----------------------------| 

                                                           
----------------------------|----------------------------| 
----------------------------|----------------------------| 
--------------4--4--4--4----|--4--4--4--4--4--4--4--4----| 
-----------2--4--4--4--4----|--4--4--4--4--4--4--4--4----| 
--2--4--5-----2--2--2--2----|--2--2--2--2--2--2--2--2----| 
----------------------------|----------------------------| 

                                                           
----------------------------|----------------------------| 
----------------------------|----------------------------| 
----------------------------|----------------------------| 
-----------2--5--5--5--5----|--5--5--5--5--5--5--5--5----| 
--2--4--5-----5--5--5--5----|--5--5--5--5--5--5--5--5----| 
--------------3--3--3--3----|--3--3--3--3--3--3--3--3----| 

                                                           
----------------------------|----------------------------| 
----------------------------|----------------------------| 
----------------------------|--------------2--2--2--2----| 
-----------2--2--2--2--2----|--2--2--2--2--2--2--2--2----| 
--2--4--5-----2--2--2--2----|--2--2--2--2--0--0--0--0----| 
--------------0--0--0--0----|--0--0--0--0----------------| 

                                                                
----------------------------|----------------------------|----| 
----------------------------|----------------------------|----| 
--2--2--2--2--4--4--4--4----|--4--4--4--4--4--4--4--4----|----| 
--2--2--2--2--4--4--4--4----|--4--4--4--4--4--4--4--4----|----| 
--0--0--0--0--2--2--2--2----|--2--2--2--2--2--2--2--2----|----| 
----------------------------|----------------------------|----| 

There are Palm Mutes. 
                                                           
--14.---14.---14.---14.15.--|--14.---14.---14.---14.15.--| 
-----15.---15.---15.--------|-----14.---14.---14.--------| 
----------------------------|----------------------------| 
----------------------------|----------------------------| 
----------------------------|----------------------------| 
----------------------------|----------------------------| 

                                                           
--14.---14.---14.14.--------|----------------------------| 
-----15.---15.------17M15M--|--14.---14.---14.---14.15.--| 
----------------------------|-----15.---15.---15.--------| 
----------------------------|----------------------------| 
----------------------------|----------------------------| 
----------------------------|----------------------------| 

  Slide to 2 
-------------------------------------------------------------------------------- 
-------------------------------------------------------------------------------- 
-------------------------------------------------------------------------------- 
-------------------------------------------------------------------------------- 
-------------------------------------------------------------------------------- 
--14s--------------------------------------------------------------------------- 


-----------------------|----------------|----------------------------| 
-----------------------|----------------|----------------------------| 
-----------------------|--4--4--4--4----|--4--4--4--4--4--4--4--4----| 
-----------------------|--4--4--4--4----|--4--4--4--4--4--4--4--4----| 
-----------------------|--2--2--2--2----|--2--2--2--2--2--2--2--2----| 
------------------2----|----------------|----------------------------| 


----------------------------|----------------------------| 
----------------------------|----------------------------| 
----------------------------|----------------------------| 
-----------2--5--5--5--5----|--5--5--5--5--5--5--5--5----| 
--2--4--5-----5--5--5--5----|--5--5--5--5--5--5--5--5----| 
--------------3--3--3--3----|--3--3--3--3--3--3--3--3----| 


----------------------------|----------------------------| 
----------------------------|----------------------------| 
----------------------------|--------------2--2--2--2----| 
-----------2--2--2--2--2----|--2--2--2--2--2--2--2--2----| 
--2--4--5-----2--2--2--2----|--2--2--2--2--0--0--0--0----| 
--------------0--0--0--0----|--0--0--0--0----------------| 


----------------------------|----------------------------| 
----------------------------|----------------------------| 
--2--2--2--2--4--4--4--4----|--4--4--4--4--4--4--4--4----| 
--2--2--2--2--4--4--4--4----|--4--4--4--4--4--4--4--4----| 
--0--0--0--0--2--2--2--2----|--2--2--2--2--2--2--2--2----| 
----------------------------|----------------------------| 


----------------------------|----------------------------| 
----------------------------|----------------------------| 
--------------4--4--4--4----|--4--4--4--4--4--4--4--4----| 
-----------2--4--4--4--4----|--4--4--4--4--4--4--4--4----| 
--2--4--5-----2--2--2--2----|--2--2--2--2--2--2--2--2----| 
----------------------------|----------------------------| 


----------------------------|----------------------------| 
----------------------------|----------------------------| 
----------------------------|----------------------------| 
-----------2--5--5--5--5----|--5--5--5--5--5--5--5--5----| 
--2--4--5-----5--5--5--5----|--5--5--5--5--5--5--5--5----| 
--------------3--3--3--3----|--3--3--3--3--3--3--3--3----| 


----------------------------|----------------------------| 
----------------------------|----------------------------| 
----------------------------|--------------2--2--2--2----| 
-----------2--2--2--2--2----|--2--2--2--2--2--2--2--2----| 
--2--4--5-----2--2--2--2----|--2--2--2--2--0--0--0--0----| 
--------------0--0--0--0----|--0--0--0--0----------------| 


----------------------------|----------------------------|| 
----------------------------|----------------------------|| 
--2--2--2--2--4--4--4--4----|--4--4--4--4--4--4--4--4----|| 
--2--2--2--2--4--4--4--4----|--4--4--4--4--4--4--4--4----|| 
--0--0--0--0--2--2--2--2----|--2--2--2--2--2--2--2--2----|| 
----------------------------|----------------------------|| 
	  

Search Paypal
auto scroll beats size up size down change color hide chords simplify chords drawings columns
tab show chords e-chords YouTube Clip e-chords hide all tabs e-chords go to top tab