Falcon Destroyer Crew

Help Me

Falcon Destroyer Crew

chords

by  ABELAMIN

save to print version add songbook text version e-mail correct tuner
chordsukulelecavacokeyboardtabbassdrumsharmonicaflute Guitar Pro
close

there isn't a video lesson for this song

chords

Help Me

	  		E|-------------------------- 
B|-------------------------- 
G|-------------------------- 
D|-------------------------- 
A|--2--5--3-3--2--2--2--7--1 
E|--4--5--3-3--4--2--2--5--0 

(Refrão) 
Can you help me?! 
Will we ever be?! 
Why can't you see?! 
Some one help me! 

E|-------------- 
B|-------------- 
G|-------------- 
D|--5-5-5-5-5--- 
A|--5-5-5-5-5--- 
E|--3-3-3-3-3--- 
		  

See also:

chords Simon & Garfunkel - Scarborough Fair chords Elvis Presley - Always On My Mind chords Guns N' Roses - Sweet Child O' Mine chords Bon Jovi - Bed Of Roses chords Bob Dylan - Blowin' In The Wind chords Guns N' Roses - Knockin' On Heaven's Door
e-chords

Other versions:

chords Kris Kristofferson - help me chords Nick Carter - Help Me chords Colin Hay - Help Me chords Falcon Destroyer Crew - Help Me chords Cortt Chavis - Help Me chords 7eventh Time Down - Help Me
auto scroll beats size up size down change color hide chords simplify chords drawings columns
tab show chords e-chords YouTube Clip e-chords hide all tabs e-chords go to top tab

share