Daniel F

Memorias

Daniel F

chords Beginner beginner

by  SID1VICIOUS

save to print version add songbook text version e-mail correct tuner
chordsukulelecavacokeyboardtabbassdrumsharmonicaflute Guitar Pro
close

there isn't a video lesson for this song

chords

Memorias

	  		Tabs and chords by José Aquino ([email protected]) 

La canción está 1/2 tono más bajo 
This song is tunned half a step down 
(Eb-Ab-Db-Gb-A#-Eb) 

Las cuerdas que se oyen en este tema tocan las notas de 
los acordes de guitarra. 
Strings heard on this song play the guitar notes of the  
guitar chords. 

Durante los 2 SOLOS, los acordes de guitarra son los  
mismos que en las estrofas. 
During the 2 SOLOS, guitar chords are the same as those 
on the verses 


INTRO: 
A E A A(x2) 
D E A A 

Lo que sigue entra después de la primera rueda de  
acordes del INTRO (A E A A) 
What follows fades in after the first strumming of 
the group of chords of the intro (A E A A) 

E-4/5~--4-2------------------------------ 
B----------5-3-------3-5~---5/7--5-3-2--- 
G-------------6-6/4/6-----------------2~~ 
D---------------------------------------- 
A---------------------------------------- 
E---------------------------------------- 

ESTROFA 1: 
VERSE 1: 

A       E           A      A 
 Me asome un 4 de enero 

A       E            A      A 
 hubo espanto en derredores 

D            E            A     A 
 el barrio estaba hecho rumores 

D           E                 A      A 
 otro anticristo ha llegado señores 

A       E           A      A 
 de pekeño estuve en las jaulas 

A    E                     A      A 
 padeci muchos templos y dioses y 

D      E                  F#m      
 termine asesinando a esos dioses 

D     E           A      A 
 y pateando profesores  

A       E           A      A 
 Tuve miedo y estuve oculto  

A       E           A      A 
 me pasaba el dia soñando 

D       E         F#m       
 necesitaba un abrazo 

D       E         A       A 
 necesitaba un balazo 

1er SOLO 
1st SOLO 
E-----------------------4-4h5-5p4---4-5~--9-7-5-4------ 
B----5/7-5-3-3/5~~--5-7-----------7---------------7~--- 
G-6~~-------------------------------------------------- 
D------------------------------------------------------ 
A------------------------------------------------------ 
E------------------------------------------------------ 

E-4--------------------------4-4h5-5p4---4-5~--10-10p9- 
G--7-6~-7-6-5~-5/7~~--5-7--------------7--------------- 
D------------------------------------------------------ 
A------------------------------------------------------ 
E------------------------------------------------------ 

E-7---------------------------------------------------- 
B---10-9-7-5------------------------------------------- 
G------------------------------------------------------ 
D------------------------------------------------------ 
A------------------------------------------------------ 
E------------------------------------------------------ 

ESTROFA 2: 
VERSE 2: 

A     E              A      A 
 conoci lo ke es el sexo 

A      E             A      A 
 la pase mejor desde entonces 

D    E              A       A(golpe y pequeño silencio) 
 onanista a tiempo completo   (stroke and a little silence) 

D            E              A      A 
 siempre de dia siempre de noche 

A      E                   A      A 
 la locura me dio un gran golpe 

A      E                  A      A 
 el sonido se hizo envolvente 

D        E                   A     A 
 el rey rojo salio de su guarida 

D       E            A      A 
 y las vacas despavoridas 

A       E                 A      A 
 Abandone la escuela temprano 

A         E                  A      A 
 el rocknroll me dio mas lecciones 

D          E             A      A 
 lo ke no supe en los salones 

D         E         A      A 
 lo aprendi de canciones 

2do SOLO 
2nd SOLO 
E-7/9~-(9)ld7-5-5-4----------4-5-5h7-5-5p4---5~------- 
B--------------------7~~---7---------------7---------- 
G----------------------------------------------------- 
D----------------------------------------------------- 
A----------------------------------------------------- 
E----------------------------------------------------- 

E-10-10p9-7-----------------------------4-4h5-5p4----- 
B-----------10-9-7-5--7-6~-5~-5/7~~-5-7--------------- 
G----------------------------------------------------- 
D----------------------------------------------------- 
A----------------------------------------------------- 
E----------------------------------------------------- 

E---4-5---4-5-7-5-5~~--------------------------------- 
B-7------5-5-5-5-5------------------------------------ 
G----------------------------------------------------- 
D----------------------------------------------------- 
A----------------------------------------------------- 
E----------------------------------------------------- 

ESTROFA 3: 
VERSE 4 

A           E               A      A 
 Kon mi hermano hicimos un tango 

A        E                  A      A 
 nos burlamos de la hipocresia 

D           E         A      A 
 hartos de la rutina 

D           E        A      A 
 y de los mismos huevones 

(arpegiando o rasgueando suave) 
A       E                 A      A 
 Una mañana del mes de octubre 

A       E                     A      A 
 aparecio una princesa en mi vida 

D      E        A      A 
 pura luz pura vida 

D         E             A       A 
 y yo la kiero desde entonces 

A        E                 A      A 
 nunca fuimos juntos a un baile  

A          E               A      A 
 ni enfrentamos a esos dragones 

D       E                A        A 
 solo fuimos hasta la eskina  

D     E                  A        A 
 y miramos los mismos faroles 

(volver al rasgueo anterior) 
A       E                   A      A 
 la ciudad ya perdio la cordura  

A         E                   A      A 
 y yo buscando una calle engomada  

D           E                  A      A 
 la vida ofrece puertas de entrada 

D          E                 A        A 
 pero despues ya no tiene salidas 

D        E                   A         A 
 la esperanza es mierda a colores 

D             E             A         A 
 me llega al pincho esta rutina 

OUTRO: 
 A(x7) A9+ 

A9+ 

E-7- 
B-5- 
G-6- 
D-7- 
A-0- 
E-0- 

		  

Full key step upFull key step up
Half key step upHalf key step up
Half key step downHalf key step down
Full key step downFull key step down
hide glossary

See also:

chords Hombres G - Huellas En La Bajamar chords Hombres G - Te quiero chords Enrique Bunbury - La Señorita Hermafrodita chords Hombres G - El Beso Y El Perfume chords Enrique Bunbury - Bravo chords Enrique Bunbury - Ahora
e-chords

Other versions:

chords Fafá de Belem - Memórias chords Léa Mendonça - Memórias chords Oficina G3 - Memórias chords Pitty - Memórias chords João Alexandre - Memórias chords Daniel F - Memorias
auto scroll beats size up size down change color hide chords simplify chords drawings columns
tab show chords e-chords YouTube Clip e-chords hide all tabs e-chords go to top tab

share