Cólera

home > Cólera

Pela Paz Chords

Cólera

Difficulty: BeginnerBeginner

tuner correct add songbook print version text version save to e-mail
chordsukulelecavacokeyboardtabbassdrumsharmonicsflute Guitar Pro
chords

Pela Paz

  		INTRO 1
e|---2-2-----4-5-4--2-2-----4-5-4-
b|--3-3--3/5-------3-3--3/5-------
g|-2-2------------2-2-------------
d|--------------------------------
a|--------------------------------
E|--------------------------------
INTRO 2
(A C A C A G F G) 4X E
A                   E      A       D           B
Tem violência em Bruxelas, tem violência em Moscou
A                 E        A     D        A   
Tem violência em Nova York e também no Brasil
A                   E     A       D        B 
Têm vinganças religiosas, têm vinganças de raças
A                  E      A     D        A 
Têm vingaNças de governos, tenho medo da guerra
D        E            D        E 
Mas, quem se importa? Mas, quem se importa?
Eu me importo, eu me importo
A         D         A           E               
Pela paz, pela paz, pela paz em todo o mundo  2x
e|---------------------------------------------------------------
b|---------------------------------------------------------------
g|---------5-7/9--------7-7--7-4-4----------5-7/9--------7-7--7--
d|-7-7-7-7-------7-7--7-------------7-7-7-7-------7-7--7-------7-
a|---------------------------------------------------------------
E|---------------------------------------------------------------
A                 E     A      D       B 
Mais o ódio se espalha, mais aumenta a fome
A                   E     A  D          A
Mais as vidas são tiradas de dentro dos homens
A                     E      A        D         B
São mais armas para o mundo, são mais filmes violentos
A                 E    A   B        A
São crianças aprendendo matar ou morrer
D        E            D        E 
Mas, quem se importa? Mas, quem se importa?
Eu me importo, eu me importo
A         D         A           E               
Pela paz, pela paz, pela paz em todo o mundo  2x
	  

Full key step upFull key step up
Half key step upHalf key step up
Half key step downHalf key step down
Full key step downFull key step down
Search Paypal
auto scroll beats size up size down change color hide chords simplify chords drawings columns
tab show chords e-chords YouTube Clip e-chords hide all tabs e-chords go to top tab