Ceremony

Sick

Ceremony

chords nolevel nolevel

by  ROBEPOIEL

save to print version add songbook text version e-mail correct tuner
chordsukulelecavacokeyboardtabbassdrumsharmonicaflute Guitar Pro
close

there isn't a video lesson for this song

chords

Sick

	  		

Intro Pt. 1 

e|---------------------------------------------------------------------------| 
B|---------------------------------------------------------------------------| 
G|---------------------------------------------------------------------------| 
D|--4-/-6~---4-/-6~---4-/-6~---4-/-6~----------------------------------------| 
A|--x---x~---x---x~---x---x----x---x~----------------------------------------| 
E|--2-/-4~---2-/-4~---2-/-4~---2-/-4~----------------------------------------| 

Intro Pt. 2 
                                                                                 X 3 
e|---------------------------------------------------------------------------| 
B|---------------------------------------------------------------------------| 
G|---------------------------------------------------------------------------| 
D|--4-/-6-6-6-6-6-6-6-6-6-6-6-6-6-6-6-6-6-6-6-6-6-6-6-6----------------------| 
A|--x---x-x-x-x-x-x-x-x-x-x-x-x-x-x-x-x-x-x-x-x-x-x-x-x----------------------| 
E|--2-/-4-4-4-4-4-4-4-4-4-4-4-4-4-4-4-4-4-4-4-4-4-4-4-4----------------------| 

On the 4th bar... 

e|---------------------------------------------------------------------------| 
B|---------------------------------------------------------------------------| 
G|---------------------------------------------------------------------------| 
D|--4-/-6-6-6-6-6-6-6-6-6-6-6-6-6-6-6-6-6-x-x-x-x-x-x-x----------------------| 
A|--x---x-x-x-x-x-x-x-x-x-x-x-x-x-x-x-x-x-x-x-x-x-x-x-x----------------------| 
E|--2-/-4-4-4-4-4-4-4-4-4-4-4-4-4-4-4-4-4-x-x-x-x-x-x-x----------------------| 

The 5th and 6th bars... 
                                                                                X 2 
e|---------------------------------------------------------------------------| 
B|---------------------------------------------------------------------------| 
G|---------------------------------------------------------------------------| 
D|--6~-----------------------------------------------------------------------| 
A|--x~-----------------------------------------------------------------------| 
E|--4~-----------------------------------------------------------------------| 

The 7th and 8th bars... 
                                                                                X 2       
e|---------------------------------------------------------------------------| 
B|---------------------------------------------------------------------------| 
G|---------------------------------------------------------------------------| 
D|--4-/-6-6-6-6-6-6-6-6-6-6-6-6-6-6-6-6-6-6-6-6-6-6-6-6----------------------| 
A|--x---x-x-x-x-x-x-x-x-x-x-x-x-x-x-x-x-x-x-x-x-x-x-x-x----------------------| 
E|--2-/-4-4-4-4-4-4-4-4-4-4-4-4-4-4-4-4-4-4-4-4-4-4-4-4----------------------| 

verse 1 

e|---------------------------------------------------------------------------| 
B|---------------------------------------------------------------------------| 
G|---------------------------------------------------------------------------| 
D|--7--4--6-6-6-6-6-6-6-6-6-6-6-6-6-6-6-6-6-6-6-6----------------------------| 
A|--x--x--x-x-x-x-x-x-x-x-x-x-x-x-x-x-x-x-x-x-x-x----------------------------| 
E|--5--2--4-4-4-4-4-4-4-4-4-4-4-4-4-4-4-4-4-4-4-4----------------------------| 

e|---------------------------------------------------------------------------| 
B|---------------------------------------------------------------------------| 
G|---------------------------------------------------------------------------| 
D|--7--4--6-6-6-6-6-6-6-6-6-6-6-6-6-6-6-6-/-7-\-6-6-6-6-/-7------------------| 
A|--x--x--x-x-x-x-x-x-x-x-x-x-x-x-x-x-x-x-x-x-x-x-x-x-x-x-x------------------| 
E|--5--2--4-4-4-4-4-4-4-4-4-4-4-4-4-4-4-4-/-5-\-4-4-4-4-/-5------------------| 

e|---------------------------------------------------------------------------| 
B|---------------------------------------------------------------------------| 
G|---------------------------------------------------------------------------| 
D|--------6-6-6-6-6-6-6-6-6-6-6-6-6-6-6-6-6-6-6-6----------------------------| 
A|--------x-x-x-x-x-x-x-x-x-x-x-x-x-x-x-x-x-x-x-x----------------------------| 
E|--------4-4-4-4-4-4-4-4-4-4-4-4-4-4-4-4-4-4-4-4----------------------------| 

e|---------------------------------------------------------------------------| 
B|---------------------------------------------------------------------------| 
G|---------------------------------------------------------------------------| 
D|--7--4--6-6-6-6-6-6-6-6-6-6-6-6-6-6-6-6-/-7-\-6-6-6-6-/-7------------------| 
A|--x--x--x-x-x-x-x-x-x-x-x-x-x-x-x-x-x-x-x-x-x-x-x-x-x-x-x------------------| 
E|--5--2--4-4-4-4-4-4-4-4-4-4-4-4-4-4-4-4-/-5-\-4-4-4-4-/-5------------------| 

Chorus 

e|---------------------------------------------------------------------------| 
B|---------------------------------------------------------------------------| 
G|---------------------------------------------------------------------------| 
D|--6-x-x-6-x-x-6-x-x-6-x-x-6-x-x-6-x-x-x-x-x-x------------------------------| 
A|--x-x-x-x-x-x-x-x-x-x-x-x-x-x-x-x-x-x-x-x-x-x------------------------------| 
E|--4-x-x-4-x-x-4-x-x-4-x-x-4-x-x-4-x-x-x-x-x-x------------------------------| 

e|---------------------------------------------------------------------------| 
B|---------------------------------------------------------------------------| 
G|---------------------------------------------------------------------------| 
D|--6-x-x-6-x-x-6-x-x-6-x-x-6-x-x-6-x-x-x-x-x-x------------------------------| 
A|--x-x-x-x-x-x-x-x-x-x-x-x-x-x-x-x-x-x-x-x-x-x------------------------------| 
E|--4-x-x-4-x-x-4-x-x-4-x-x-4-x-x-4-x-x-x-x-x-x------------------------------| 


verse 2 

e|---------------------------------------------------------------------------| 
B|---------------------------------------------------------------------------| 
G|---------------------------------------------------------------------------| 
D|--6-6-6-6-6-6-6-6-6-6-6-6-6-6-6-6-6-6-6-6----------------------------------| 
A|--x-x-x-x-x-x-x-x-x-x-x-x-x-x-x-x-x-x-x-x----------------------------------| 
E|--4-4-4-4-4-4-4-4-4-4-4-4-4-4-4-4-4-4-4-4----------------------------------| 

e|---------------------------------------------------------------------------| 
B|---------------------------------------------------------------------------| 
G|---------------------------------------------------------------------------| 
D|--7--4--6-6-6-6-6-6-6-6-6-6-6-6-6-6-6-6-/-7-\-6-6-6-6-/-7------------------| 
A|--x--x--x-x-x-x-x-x-x-x-x-x-x-x-x-x-x-x-x-x-x-x-x-x-x-x-x------------------| 
E|--5--2--4-4-4-4-4-4-4-4-4-4-4-4-4-4-4-4-/-5-\-4-4-4-4-/-5------------------| 

Bridge 

e|---------------------------------------------------------------------------| 
B|---------------------------------------------------------------------------| 
G|---------------------------------------------------------------------------| 
D|--9--7--6--9--7--6--9--7--6--4-4-4-4-6-6-6-6-------------------------------| 
A|--x--x--x--x--x--x--x--x--x--x-x-x-x-x-x-x-x-------------------------------| 
E|--7--5--4--7--5--4--7--5--4--2-2-2-2-4-4-4-4-------------------------------| 

e|---------------------------------------------------------------------------| 
B|---------------------------------------------------------------------------| 
G|---------------------------------------------------------------------------| 
D|--9--7--6--9--7--6--8--6--5--4-4-4-4-6-6-6-6--6~--6~-----------------------| 
A|--x--x--x--x--x--x--x--x--x--x-x-x-x-x-x-x-x--x~--x~-----------------------| 
E|--7--5--4--7--5--4--6--4--3--2-2-2-2-4-4-4-4--4~--4~-----------------------| 

e|---------------------------------------------------------------------------| 
B|---------------------------------------------------------------------------| 
G|---------------------------------------------------------------------------| 
D|--6-6-6-6-6-6-6-6-6-6-6-6-6-6-6-6-6-6-6-6-6-6-6-/-7------------------------| 
A|--x-x-x-x-x-x-x-x-x-x-x-x-x-x-x-x-x-x-x-x-x-x-x-x-x------------------------| 
E|--4-4-4-4-4-4-4-4-4-4-4-4-4-4-4-4-4-4-4-4-4-4-4-/-5------------------------| 

e|---------------------------------------------------------------------------| 
B|---------------------------------------------------------------------------| 
G|---------------------------------------------------------------------------| 
D|--6-6-6-6-6-6-6-6-6-6-6-6-6-6-6-6-6-6-6-6-6-6-6-/-7------------------------| 
A|--x-x-x-x-x-x-x-x-x-x-x-x-x-x-x-x-x-x-x-x-x-x-x-x-x------------------------| 
E|--4-4-4-4-4-4-4-4-4-4-4-4-4-4-4-4-4-4-4-4-4-4-4-/-5------------------------| 

Chorus 

e|---------------------------------------------------------------------------| 
B|---------------------------------------------------------------------------| 
G|---------------------------------------------------------------------------| 
D|--6-x-x-6-x-x-6-x-x-6-x-x-6-x-x-6-x-x-x-x-x-x------------------------------| 
A|--x-x-x-x-x-x-x-x-x-x-x-x-x-x-x-x-x-x-x-x-x-x------------------------------| 
E|--4-x-x-4-x-x-4-x-x-4-x-x-4-x-x-4-x-x-x-x-x-x------------------------------| 

e|---------------------------------------------------------------------------| 
B|---------------------------------------------------------------------------| 
G|---------------------------------------------------------------------------| 
D|--6-x-x-6-x-x-6-x-x-6-x-x-6-x-x-6-x-x-x-x-x-x------------------------------| 
A|--x-x-x-x-x-x-x-x-x-x-x-x-x-x-x-x-x-x-x-x-x-x------------------------------| 
E|--4-x-x-4-x-x-4-x-x-4-x-x-4-x-x-4-x-x-x-x-x-x------------------------------ 

verse 3  

e|---------------------------------------------------------------------------| 
B|---------------------------------------------------------------------------| 
G|---------------------------------------------------------------------------| 
D|--6-6-6-6-6-6-6-6-6-6-6-6-6-6-6-6-6-6-6-6----------------------------------| 
A|--x-x-x-x-x-x-x-x-x-x-x-x-x-x-x-x-x-x-x-x----------------------------------| 
E|--4-4-4-4-4-4-4-4-4-4-4-4-4-4-4-4-4-4-4-4----------------------------------| 

e|---------------------------------------------------------------------------| 
B|---------------------------------------------------------------------------| 
G|---------------------------------------------------------------------------| 
D|--7--4--6-6-6-6-6-6-6-6-6-6-6-6-6-6-6-6-6-6-6-6----------------------------| 
A|--x--x--x-x-x-x-x-x-x-x-x-x-x-x-x-x-x-x-x-x-x-x----------------------------| 
E|--5--2--4-4-4-4-4-4-4-4-4-4-4-4-4-4-4-4-4-4-4-4----------------------------| 

e|---------------------------------------------------------------------------| 
B|---------------------------------------------------------------------------| 
G|---------------------------------------------------------------------------| 
D|--7--4--6-6-6-6-6-6-6-6-6-6-6-6-6-6-6-6-6-6-6-6----------------------------| 
A|--x--x--x-x-x-x-x-x-x-x-x-x-x-x-x-x-x-x-x-x-x-x----------------------------| 
E|--5--2--4-4-4-4-4-4-4-4-4-4-4-4-4-4-4-4-4-4-4-4----------------------------| 

e|---------------------------------------------------------------------------| 
B|---------------------------------------------------------------------------| 
G|---------------------------------------------------------------------------| 
D|--7--4--6-6-6-6-6-6-6-6-6-6-6-6-6-6-6-6-/-7-\-6-6-6-6-/-7------------------| 
A|--x--x--x-x-x-x-x-x-x-x-x-x-x-x-x-x-x-x-x-x-x-x-x-x-x-x-x------------------| 
E|--5--2--4-4-4-4-4-4-4-4-4-4-4-4-4-4-4-4-/-5-\-4-4-4-4-/-5------------------| 

Outro 

e|----------------------| 
B|----------------------| 
G|----------------------| 
D|--6~------------------| 
A|--x~------------------| 
E|--4~------------------| 

Thanks :3 

************************************ 

| /   slide up 
| \   slide down 
| h   hammer-on 
| p   pull-off 
| ~   vibrato 
| +   harmonic 
| x   Mute note 
| b   Bend 
| pb  Pre-bend 
| br  Bend release 
| pbr Pre-bend release 
| brb Bend release bend 

************************************ 
		  

See also:

chords Ira! - House of The Rising Sun chords Ira! - Mariana Foi Pro Mar chords Ira! - Eu Quero Sempre Mais (ver. 2) chords Deep Purple - Hush chords Ira! - O Girassol chords Ira! - Chorando no Campo
e-chords

Other versions:

chords Lillix - Sick chords Evanescence - Sick chords Ceremony - Sick chords Citizen - Sick And Impatient chords Toh Kay - Sick And Sad chords Cross Canadian Ragweed - Sick and Tired
auto scroll beats size up size down change color hide chords simplify chords drawings columns
tab show chords e-chords YouTube Clip e-chords hide all tabs e-chords go to top tab

share with facebook