Cape Cub

Keep Me In Mind Chords

Cape Cub

Difficulty: nolevelnolevel

by carlluz

tuner correct add songbook print version text version save to e-mail
chordsukuleleukulelecavacokeyboardtabbassdrumsharmonicsflute Guitar Pro
close

there isn't a video lesson for this song

chords

Keep Me In Mind

  		Intro 

e|---------------------------------------------------------------------------| 
B|---10------5----7--------2----------0--------------------------------------| 
G|---------------------------------------------------------------------------| 
D|---------------------------------------------------------------------------| 
A|---9-------4----5--------0-------------------------------------------------| 
E|------------------------------------0--------------------------------------| 

e|---------------------------------------------------------------------------| 
B|----10-10---------5--7--------2----9---------------------------------------| 
G|---------------------------------------------------------------------------| 
D|---------------------------------------------------------------------------| 
A|----9-------------4--5--------0----7---------------------------------------| 
E|---------------------------------------------------------------------------| 

Repeat this throughout the whole song 
	  

auto scroll beats size up size down change color hide chords simplify chords drawings columns
tab show chords e-chords YouTube Clip e-chords hide all tabs e-chords go to top tab

share with facebook

Search Paypal