Buckethead

Halloween Town

Buckethead

chords Beginner beginner

by  HALEN666

save to print version add songbook text version e-mail correct tuner
chordsukulelecavacokeyboardtabbassdrumsharmonicaflute Guitar Pro
close

there isn't a video lesson for this song

chords

Halloween Town

	  		e7-7-7-7-7-8-5-5|5-5-5-5-5-7-8-7|7-7-7-7-10-8-7-5| 
b8-8-8-8-8-8-7-7|7-7-7-7-7-8-8-8|8-8-8-----------| 
g---------------|---------------|----------------| 
d---------------|---------------|---------------0| 
a---------------|---------------|----------------| 
e0-0-0-0-0---0-0|0-0-0-0---0----|0-0-0-----------| 


e5-5-5-5-8-7-3-3|-------------------|---------------| 
b---------------|-------------------|---------------| 
g---------------|-------------------|---------------| 
d---------------|-------------------|---------------| 
a---------------|5-5-5-4-2-5-5-5-4-2|5-0-0-------2-3| 
e----------0----|2-2-2-----2-2-2----|------2-1-0----| 


e-------------------|-------------------------| 
b-------------------|-------------------------| 
g-------------------|-------------------------| 
d-------------------|----4-------3-------2---1| 
a7-7-7-6-4-7-7-7-6-4|--5---5---4---4---3---3-2| 
e4-4-4-----4-4-4----|6-------5-------4-------3| 
		  

See also:

chords The Knife - Heartbeats chords Air - Venus chords Kaskade - Atmosphere chords Empire of the sun - Standing On The Shore chords Krewella - Enjoy The Ride (acoustic) chords Kasino - Stockholm
e-chords

Other versions:

chords Buckethead - Halloween Town
auto scroll beats size up size down change color hide chords simplify chords drawings columns
tab show chords e-chords YouTube Clip e-chords hide all tabs e-chords go to top tab

share