Bandabard˛

Disegnata

Bandabard˛

chords Beginner beginner

by  DAVIDEDANTE123

save to print version add songbook text version e-mail correct tuner
chordsukulelecavacokeyboardtabbassdrumsharmonicaflute Guitar Pro
close

there isn't a video lesson for this song

chords

Disegnata

	  		Intro: 

N.C. 
tu tu ru... 

main riff: 
                                                                   Bm 
e|-------------------------- ---------------------------    ----------| 
B|-------------------------- ---------------------------    ----------| 
G|--4h6-7-4-----4-----4----- --4-6-7--4-----4-----4-----    --4-6-7---| 
D|-----------6-----5-----4-- ------------6-----5-----4--    ----------| 
A|-------------------------- --------------------------- x3 ----------| 
E|-------------------------- ---------------------------    ----------| 

   Bm 
e|--------------------------------------------------------------------| 
B|-7----7---7-8------7---7---7-8-7-------7---7---7\-----7---7---7-8---| 
G|----9---9------------9---9-------8-------9---9----------9---9-------| 
D|--------------------------------------------------------------------| 
A|--------------------------------------------------------------------| 
E|--------------------------------------------------------------------| 


Verse 1: 


e|--10--10--9~~9~~--| 
B|------------------| 
G|------------------| 
D|------------------| 
A|------------------| x8 
E|------------------| 

 Bm 
Devo finir di colorare il mondo che vorrei abitare  x2 
                 F#              Bm 
Un giorno, che piove, disegner˛ sale 

riff.2 
e|-----------------------------| 
B|----9---8--8\7/11~~----------| 
G|-----------------------------| 
D|-----------------------------| 
A|-----------------------------| 
E|-----------------------------| 

                  F#              G        D (riff.2) 
Con l'acqua del cielo mi far˛ il mare, il mare 
            F#                     Bm 
NascerÓ la sabbia per farci un altare 

riff.3 
e|-----------------------------| 
B|---9--8-9--8-9-/9~~9~~-------| 
G|-----------------------------| 
D|-----------------------------| 
A|-----------------------------| 
E|-----------------------------| 

                F#                    G           D riff.2   F# riff.3 
dove solo gli amici ci verranno a sposare, ci verranno a sposare. 

(x2): 
tabchorus
G F# Bm F# Luna piena di gomma e fal˛ G F# Bm F# G Con la faccia da mostro ti abbraccer˛
tab
Bridge: riff.2 F# Bm F# G Poi disegner˛ una casa che sia grande da abitare D Dsus2 D Bm che da davanti viene male. Solo 1: F# Bm F# G D E|--------------------------------------------------------------------- B|--------------------------------------------------------------------- G|------------------------------9-11-12-12-12-12-11-12-11----11-11-11-- D|------------1112-11-9-11-12------------------------------------------ A|--12-14-12----------------------------------------------------------- E|--------------------------------------------------------------------- ------------10-10-10-10-10-9----9-------------------------------------| --------12-------------------------12------12-10-12-------------------| -----------------------------------------------------11---11-12-11----| ----------------------------------------------------------------------| ----------------------------------------------------------------------| ----------------------------------------------------------------------| play intro 2 (x3)
tabchorus
G F# Fermo il tempo Bm F# G F# Bm e il disegno dirÓ baciami. x3
tab
Solo 2/End: e|------------------------------- ---------------------------------- B|-7---7---7-8----7---7---7--7\-- -7---7---7-8-10~~10~---7---7---7\- G|---9---9----------9---9--9----- ---9---9-----------------9---9---- D|------------------------------- ---------------------------------- A|------------------------------- x2 ---------------------------------- E|------------------------------- ---------------------------------- ------------------------------------------------ -10-10-9~9~-10-10-9~9~ -10-10-8~8~--10-10-8~8~--7---7--8--10~~10~~10-\- ---------------------- ---------------------------9-------------------- ---------------------- ------------------------------------------------ ---------------------- ------------------------------------------------ ---------------------- x3 ------------------------------------------------ ---------------------- --9\-| -----| -----| -----| -----| -----| -----|

Full key step upFull key step up
Half key step upHalf key step up
Half key step downHalf key step down
Full key step downFull key step down
hide glossary

See also:

chords Vasco Rossi - Sally chords Vasco Rossi - Ti Prendo E Ti Porto Via chords Gianna Nannini - Treno Bis chords Vasco Rossi - Timmagini Live chords Vasco Rossi - E... chords Vasco Rossi - ...stupendo
e-chords

Other versions:

chords Bandabard˛ - Disegnata
auto scroll beats size up size down change color hide chords simplify chords drawings columns
tab show chords e-chords YouTube Clip e-chords hide all tabs e-chords go to top tab

share