A.N.JELL

Lovely Day

A.N.JELL

chords Easy easy

by  HEBEALMEIDA

save to print version add songbook text version e-mail correct tuner
chordsukulelecavacokeyboardtabbassdrumsharmonicaflute Guitar Pro
close

there isn't a video lesson for this song

chords

Lovely Day

	  		
(Intro) 

 
E|-----------14------------------------| 
B|--------14----14---------------------| 
G|-----15----------15------------------| 
D|--16---------------------------------| 
A|-------------------------------------| 
E|-------------------------------------| 
 

(Verso) 
 
E|------------------------|---------------------------------------| 
B|---------7--------------|--------------------------7------------| 
G|--6-6--6---6-4-3-3-4s6--|--6-6s8---------------------6-6-3-3s8--| 
D|------------------------|--------8-6p4-4--8-6p4-4---------------| 
A|------------------------|---------------------------------------| 
E|------------------------|---------------------------------------| 
 

 
E|------------------------|-------------------------------------| 
B|---------7--------------|--------------------------7-----7-6--| 
G|--6-6--6---6-4-3-3-4s6--|--6-6s8---------------------6-6------| 
D|------------------------|--------8-6p4-4--8-6p4-4-------------| 
A|------------------------|-------------------------------------| 
E|------------------------|-------------------------------------| 
 

(refrão) 
 
E|------------------------------------|----------------------------| 
B|------6-7-9-9s11-7--6h7p6-----------|----------------------------| 
G|----8---------------------6-8-8s10--|--10-10h11-10-8-------------| 
D|--8---------------------------------|----------------9-11-11s13--| 
A|------------------------------------|----------------------------| 
E|------------------------------------|----------------------------| 
 

 
E|-------------------------------| 
B|-------------------------------| 
G|-----10-11-11--10-11-11s13-13--| 
D|--13---------------------------| 
A|-------------------------------| 
E|-------------------------------| 
 

 
E|--------------------------------------------------| 
B|--12-12-12-11---11-11-11-9---11-7-9-7h9p7h9s11-7--| 
G|--------------------------------------------------| 
D|--------------------------------------------------| 
A|--------------------------------------------------| 
E|--------------------------------------------------| 
 

 
E|---------------------------------------------------------| 
B|--12-12-12-11---11s14-14-11----14-14--11-12-11-----------| 
G|----------------------------13-----------------11s13s11--| 
D|---------------------------------------------------------| 
A|---------------------------------------------------------| 
E|---------------------------------------------------------| 
 

 
E|---------------------------------------------------| 
B|--11-11-11-9---11-11-11-7---9-7-9-9s11-9-7-9-9s11--| 
G|---------------------------------------------------| 
D|---------------------------------------------------| 
A|---------------------------------------------------| 
E|---------------------------------------------------| 
 

 
E|-----------------------------------------------------| 
B|--11s14-14-14-11----14-14---11-11h12-11--------------| 
G|-----------------13---------------------11-11s13s11--| 
D|-----------------------------------------------------| 
A|-----------------------------------------------------| 
E|-----------------------------------------------------| 
 

(solo) 

 
E|--------------------------------------14-13----14-13-----| 
B|-----------14---------------14--------------14-------14--| 
G|--11-11s15----15-13---11s15----15-11---------------------| 
D|---------------------------------------------------------| 
A|---------------------------------------------------------| 
E|---------------------------------------------------------| 
 

 
E|----------------------------13h14--16----16s18-16-14-16s18-16--| 
B|--------14---------------14-----------14-----------------------| 
G|--11s15----15-13---11s15---------------------------------------| 
D|---------------------------------------------------------------| 
A|---------------------------------------------------------------| 
E|---------------------------------------------------------------| 
 

 
E|--14h16-13h14-----------------------------------| 
B|--------------14h16-----------------------------| 
G|--------------------13h15-11h13-10h11-------11--| 
D|--------------------------------------11h13-----| 
A|------------------------------------------------| 
E|------------------------------------------------| 
 

 
E|---------------------------------------| 
B|-----14h16-----------------------------| 
G|-----------13h15-11h13-10h11-----------| 
D|-----------------------------11h13-----| 
A|---------------------------------------| 
E|---------------------------------------| 
 

(Intro)   G 

(verso 2x)   G  Bm  Em  D 

(refrão)   Em  Bm  C  D 
           G   D   Em C (2x) 

 
		  

Full key step upFull key step up
Half key step upHalf key step up
Half key step downHalf key step down
Full key step downFull key step down
hide glossary

See also:

chords Ira! - N.B. (Nucleo-Base) chords Ira! - Tarde Vazia Acustico chords Ira! - Você não serve prá mim chords Ike & Tina Turner - Proud Mary chords Deep Purple - April chords Deep Purple - Hush
e-chords

Other versions:

chords Donavon Frankenreiter - Lovely Day chords Park Shin Hye - Lovely Day chords A.N.JELL - Lovely Day chords The Moon Loungers - Lovely Day chords Apink - Lovely Day chords Alt-J - Lovely Day
auto scroll beats size up size down change color hide chords simplify chords drawings columns
tab show chords e-chords YouTube Clip e-chords hide all tabs e-chords go to top tab

share