Anderson .Paak

Anywhere Chords

Anderson .Paak

Difficulty: nolevelnolevel

by gustsilva

tuner correct add songbook print version text version save to e-mail
chordsukuleleukulelecavacokeyboardtabbassdrumsharmonicsflute Guitar Pro
close

there isn't a video lesson for this song

chords

Anywhere

  		
Drop D Tuning 

Bass line repeats throughout song 

G|---------------------------------------------------------------------------| 
D|---------------------------------------------------------------------------| 
A|---------------------------------------------0---2-2--0--------------------|  x2 
D|--2-----0---0-h-2---------2---3---4-----------------------5----4-----------| 

G|---------------------------------------------------------------------------| 
D|---7--------7----7---------------------------------------------------------| 
A|--------------------------------------------0----2--2--0-------------------|  x1 
D|--------------------------2---3---4-----------------------5----4-----------| 

G|---------------------------------------------------------------------------| 
D|---------------------------------------------------------------------------| 
A|---------------------------------------------0---2-2--0--------------------|  x1 
D|--2-----0---0-h-2---------2---3---4-----------------------5----4-----------| 


************************************ 
| h   Hammer-on 
************************************ 
	  

auto scroll beats size up size down change color hide chords simplify chords drawings columns
tab show chords e-chords YouTube Clip e-chords hide all tabs e-chords go to top tab

share with facebook

Search Paypal