Alter Bridge

home > Alter Bridge

One By One Chords

Alter Bridge

Difficulty: EasyEasy

by carlluz

tuner correct add songbook print version text version save to e-mail
chordsukulelecavacokeyboardtabbassdrumsharmonicsflute Guitar Pro
chords

One By One

Year: 2007 - Album: Blackbird

  		
 
Eb|------------------------------------------|-----------------------------------------| 
Bb|------------------------------------------|-----------------------------------------| 
Gb|------------------------------------------|-----------------------------------------| 
Db|------------------------------------------|-----------------------------------------| 
Ab|------------------------------------------|-----------------------------------------| 
Db|--0--0--0--000--15-0-13-0-10p0-15-12tr13--|--0--0--0--000--13-0-12-0-10p0-13-12tr13-| 
 

1º vez toca : 
 
Eb|-------------------------|--------------------------------| 
Bb|-------------------------|-------------------------------o| 
Gb|-------------------------|--3-3-------5-5-----------------| 
Db|-------------------------|--3-3--3-3--5-5--5--5----5/12---| 
Ab|-------------------------|--1-1--3-3--3-3--5--5----5/12--o| 
Db|--0--0--0--000--15-13~---|-------3-3-------5--5----5/12---| 
 

2º vez: 
 
Eb|-------------------------|--------------------------------| 
Bb|-------------------------|--------------------------------| 
Gb|-------------------------|--3-3-------5-5-----------------| 
Db|-------------------------|--3-3--3-3--5-5--5--5----5/12---| 
Ab|-------------------------|--1-1--3-3--3-3--5--5----5/12---| 
Db|--0--0--0--000--15-*13~--|-------3-3-------5--5----5/12---| 
 

na 2º vez ,a guitarra 2 deixa as notas soando 
 
Eb|------------------|-----------------------|----------|-------------------------------| 
Bb|-----6-----7-7-7--|--7\6--------9--9--9---|--7\6-----|-------------------------------| 
Gb|---7-------8-8-8--|--8\7--------10-10-10--|--8\7-----|--3-3-------5-5----------------| 
Db|------------------|-----------------------|----------|--3-3--3-3--5-5--5-5----5/12---| 
Ab|------------------|-----------------------|----------|--1-1--3-3--3-3--5-5----5/12---| 
Db|------------------|-----------------------|----------|-------3-3-------5-5----5/12---| 
 

Verso Riff - 
 
Eb|---------------------------------|---------------------------------| 
Bb|---------------------------------|---------------------------------| 
Gb|---------------------------------|---------------------------------| 
Db|---10p0-0------10p0-0------------|---10p0-0------10p0-0------------| 
Ab|----------8\7---------8\7-----7--|----------8\7---------8\7--------| 
Db|--0-----------0-----------7-8----|--0-----------0-----------7-8-7--| 
 

 
Eb|---------------------------------|------------------------------| 
Bb|---------------------------------|------------------------------| 
Gb|---------------------------------|------------------------------| 
Db|---10p0-0------10p0-0------------|---10p0-0---------------------| 
Ab|----------8\7---------8\7-----7--|----------8\7---7\5---5\3-----| 
Db|--0-----------0-----------7-8----|--0-----------0-----0-----3~--| 
 

 
    Asus2			      Gbsus4 
Eb|---------------------------------|---------------------------------| 
Bb|---------------------------------|---------------------------------| 
Gb|---------------------------------|---------------------------------| 
Db|---10p0-0------10p0-0------------|---10p0-0------10p0-0------------| 
Ab|----------8\7---------8\7-----7--|----------8\7---------8\7--------| 
Db|--0-----------0-----------7-8----|--0-----------0-----------7-8~~--| 
 

    Db5 
 
Eb|---------------------------------|---------------------------------| 
Bb|---------------------------------|---------------------------------| 
Gb|---------------------------------|---------------------------------| 
Db|---10p0-0------10p0-0------------|---10p0-0------10p0-0------------| 
Ab|----------8\7---------8\7-----7--|----------8\7---------8\7--------| 
Db|--0-----------0-----------7-8----|--0-----------0-----------7-8-7--| 
 

 
Eb|---------------------------------|------------------------------| 
Bb|---------------------------------|------------------------------| 
Gb|---------------------------------|------------------------------| 
Db|---10p0-0------10p0-0------------|---10p0-0---------------------| 
Ab|----------8\7---------8\7-----7--|----------8\7---7\5---5\7-----| 
Db|--0-----------0-----------7-8----|--0-----------0-----0-----7~--| 
 

 
    Asus2			      Gbsus4 
Eb|---------------------------------|----------------------------------------| 
Bb|---------------------------------|----------------------------------------| 
Gb|---------------------------------|-----------------12--12--12-12-12/14-14-| 
Db|---10p0-0------10p0-0------------|---10p0-0-------------------------------| 
Ab|----------8\7---------8\7-----7--|----------8\7----10--10--10-10-10/12-12-| 
Db|--0-----------0-----------7-8----|--0-----------0-------------------------| 
 

Refrão - "One by one ..." 
   Guitar 1 
 
Eb|------------------------|---------------------------|-----------------------| 
Bb|------------------------|---------------------------|-----------------------| 
Gb|------------------------|--5-5---5-5---5--5-5-------|-----------------------| 
Db|---3----3----3-3--5--5--|--5-5---5-5---5--5-5-------|--0---0---0-0--0--0-0--| 
Ab|---3----3----3-3--3--3--|--3-3---3-3---3--3-3-------|--0---0---0-0--0--0-0--| 
Db|---3----3----3-3--3--3--|---------------------------|--0---0---0-0--0--0-0--| 
 
| 
|  Guitar 2 
 
Eb|------------------------|---------------------------|-----------------------| 
Bb|------------------------|---------------------------|-----------------------| 
Gb|------------------------|--5-5---5-5---5--5-5--7-9--|--10--------9---5/7----| 
Db|---3----3----3-3--5--5--|--5-5---5-5---5--5-5-------|-----------------------| 
Ab|---3----3----3-3--3--3--|--3-3---3-3---3--3-3--5-7--|--8---------7---3/5----| 
Db|---3----3----3-3--3--3--|---------------------------|-----------------------| 
 

   Guitar 1 
 
Eb|--------------------|-----------------------|---------------------------| 
Bb|--------------------|-----------------------|---------------------------| 
Gb|--3---3---3--3-3-3--|-----------------------|--5-5---5-5---5--5-5-------| 
Db|--3---3---3--3-3-3--|--3----3----3-3--5--5--|--5-5---5-5---5--5-5-------| 
Ab|--1---1---1--1-1-1--|--3----3----3-3--3--3--|--3-3---3-3---3--3-3-------| 
Db|--------------------|--3----3----3-3--3--3--|---------------------------| 
 
| 
|  Guitar 2 
 
Eb|--------------------|-----------------------|---------------------------| 
Bb|--------------------|-----------------------|---------------------------| 
Gb|--5-----------------|-----------------------|--5-5---5-5---5--5-5--7-9--| 
Eb|--------------------|--3----3----3-3--5--5--|--5-5---5-5---5--5-5-------| 
Ab|--3-----------------|--3----3----3-3--3--3--|--3-3---3-3---3--3-3--5-7--| 
Db|--------------------|--3----3----3-3--3--3--|---------------------------| 
 

  Guitar 1 
 
-----------------------|-----------------------| 
-----------------------|-----------------------| 
-----------------------|--3---3---3--3-3-3/12--| 
--0---0---0-0--0--0-0--|--3---3---3--3-3-3/12--| 
--0---0---0-0--0--0-0--|--1---1---1--1-1-1/10--| 
--0---0---0-0--0--0-0--|-----------------------| 
 
| 
| Guitar 2 
 
-----------------------|--------------------| 
-----------------------|--------------------| 
--7--------7/9----5----|--(5)---------------| 
-----------------------|--------------------| 
--5--------5/7----3----|--(3)---------------| 
-----------------------|--------------------| 
 

Toque os 4 primeiros tempos do riff do verso  com: 
Guitar 2- limpa, c/ flanger, tocar 2x 
 
Eb|---------------------------------|---------------------------------| 
Bb|---6--5---------6-5--------------|----6--5--------6--5-----5------o| 
Gb|---------7--5---------7--5-------|----------7--5--------7----------| 
Db|---------------------------------|---------------------------------| 
Ab|---------------------------------|--------------------------------o| 
Db|---------------------------------|---------------------------------| 
 

Verso 2 vocais entram enquanto Guitar 1 toca: 
 
Eb|---------------------------------|---------------------------------| 
Bb|---------------------------------|---------------------------------| 
Gb|---------------------------------|---------------------------------| 
Db|---10p0-0------10p0-0------------|---10p0-0------10p0-0------------| 
Ab|----------8\7---------8\7-----7--|----------8\7---------8\7--------| 
Db|--0-----------0-----------7-8----|--0-----------0-----------7-8-7--| 
 

 
Eb|---------------------------------|-------------------------------| 
Bb|---------------------------------|-------------------------------| 
Gb|---------------------------------|-------------------------------| 
Db|---10p0-0------10p0-0------------|---10p0-0----------------------| 
Ab|----------8\7---------8\7-----7--|----------8\7---7\5---5/8--7~--| 
Db|--0-----------0-----------7-8----|--0-----------0-----0----------| 
 

 
   Asus2 (Guitar 2)			      Gbsus4 
Eb|---------------------------------|---------------------------------| 
Bb|---------------------------------|---------------------------------| 
Gb|---------------------------------|---------------------------------| 
Db|---10p0-0------10p0-0------------|---10p0-0------10p0-0------------| 
Ab|----------8\7---------8\7-----7--|----------8\7---------8\7---7/8--| 
Db|--0-----------0-----------7-8----|--0-----------0------------------| 
 

    Db5 
 
Eb|---------------------------------|---------------------------------| 
Bb|---------------------------------|---------------------------------| 
Gb|---------------------------------|---------------------------------| 
Db|---10p0-0------10p0-0------------|---10p0-0------10p0-0------------| 
Ab|----------8\7---------8\7-----7--|----------8\7---------8\7--------| 
Db|--0-----------0-----------7-8----|--0-----------0-----------7-8-7--| 
 

 
Eb|---------------------------------|------------------------------| 
Bb|---------------------------------|------------------------------| 
Gb|---------------------------------|------------------------------| 
Db|---10p0-0------10p0-0------------|---10p0-0---------------------| 
Ab|----------8\7---------8\7-----7--|----------8\7---7\5---5\7-----| 
Db|--0-----------0-----------7-8----|--0-----------0-----0-----7~--| 
 

 
    Asus2			      Gbsus4 
Eb|---------------------------------|----------------------------------------| 
Bb|---------------------------------|----------------------------------------| 
Gb|---------------------------------|-----------------12--12--12-12-12/17-17-| 
Db|---10p0-0------10p0-0------------|---10p0-0-------------------------------| 
Ab|----------8\7---------8\7-----7--|----------8\7----10--10--10-10-10/15-15-| 
Db|--0-----------0-----------7-8----|--0-----------0-------------------------| 
 

Toque o refrão como antes; 

Depois toque a Introdução com Wah 
 
Eb|------------------------------------------|-----------------------------------------| 
Bb|------------------------------------------|-----------------------------------------| 
Gb|------------------------------------------|-----------------------------------------| 
Db|------------------------------------------|-----------------------------------------| 
Ab|------------------------------------------|-----------------------------------------| 
Db|--0--0--0--000--15-0-13-0-10p0-15-12tr13--|--0--0--0--000--13-0-12-0-10p0-13-12tr13-| 
 

                      PH			   Pick Scrape 
 
Eb|-------------------------|--------------------------------| 
Bb|-------------------------|--------------------------------| 
Gb|-------------------------|--3-3-------5-5-----------------| 
Db|-------------------------|--3-3--3-3--5-5--5--5----x\\\---| 
Ab|-------------------------|--1-1--3-3--3-3--5--5----x\\\---| 
Db|--0--0--0--000--15-*13~--|-------3-3-------5--5----x\\\---| 
 

Chorus3 - Guitar 1 
 
Eb|---------------------|---------------------------|-----------------------| 
Bb|---------------------|---------------------------|-----------------------| 
Gb|---------------------|--5-5---5-5---5--5-5-------|-----------------------| 
Db|---3-----------5--5--|--5-5---5-5---5--5-5-------|--0---0---0-0--0--0-0--| 
Ab|---3-----------3--3--|--3-3---3-3---3--3-3-------|--0---0---0-0--0--0-0--| 
Db|---3-----------3--3--|---------------------------|--0---0---0-0--0--0-0--| 
 
     'One by one' 

|Guitar 2 
 
Eb|---------------------|---------------------------|-----------------------| 
Bb|---------------------|---------------------------|-----------------------| 
Gb|---------------------|--5-5---5-5---5--5-5--7-9--|--7--------7/9---5-----| 
Db|---3-----------5--5--|--5-5---5-5---5--5-5-------|-----------------------| 
Ab|---3-----------3--3--|--3-3---3-3---3--3-3--5-7--|--5--------5/7---3-----| 
Db|---3-----------3--3--|---------------------------|-----------------------| 
 

   Guitar 1 
 
Eb|--------------------|-----------------------|---------------------------| 
Bb|--------------------|-----------------------|---------------------------| 
Gb|--3---3---3--3-3-3--|-----------------------|--5-5---5-5---5--5-5-------| 
Db|--3---3---3--3-3-3--|--3----3----3-3--5--5--|--5-5---5-5---5--5-5-------| 
Ab|--1---1---1--1-1-1--|--3----3----3-3--3--3--|--3-3---3-3---3--3-3-------| 
Db|--------------------|--3----3----3-3--3--3--|---------------------------| 
 
| 
|  Guitar 2 
 
Eb|--------------------|-----------------------|---------------------------| 
Bb|--------------------|-----------------------|---------------------------| 
Gb|--5-----------------|-----------------------|--5-5---5-5---5--5-5--7-9--| 
Eb|--------------------|--3----3----3-3--5--5--|--5-5---5-5---5--5-5-------| 
Ab|--3-----------------|--3----3----3-3--3--3--|--3-3---3-3---3--3-3--5-7--| 
Db|--------------------|--3----3----3-3--3--3--|---------------------------| 
 

  Guitar 1 
 
Eb|-----------------------|-----------------------|-----------------------| 
Bb|-----------------------|-----------------------|-----------------------| 
Gb|-----------------------|--3---3---3--3-3-3/12--|-----------------------| 
Db|--0---0---0-0--0--0-0--|--3---3---3--3-3-3/12--|--3----3----3-3--5--5--| 
Ab|--0---0---0-0--0--0-0--|--1---1---1--1-1-1/10--|--3----3----3-3--3--3--| 
Db|--0---0---0-0--0--0-0--|-----------------------|--3----3----3-3--3--3--| 
 
| 
| Guitar 2 
 
Eb|-----------------------|--------------------| 
Bb|-----------------------|--------------------| 
Gb|--7--------7/9----5----|--(5)---------------| 
Db|-----------------------|--------------------| 
Ab|--5--------5/7----3----|--(3)---------------| 
Db|-----------------------|--------------------| 
 


Guitar 1 toca o riff abaixo 
(Guitar 2 toca sem pausa):                            Final 
 
Eb|----------------------------------------------------|------- 
Bb|---------------------------------------------------o|------- 
Gb|-----------17----------------------17---------------|------- 
Db|--19-17-15----15-17-15-15-19-17-15----15-17-15-15---|--15~~- 
Ab|---------------------------------------------------o|------- 
Db|----------------------------------------------------|------- 
 

Finale: 
Guitar 1 (Guitar 2 Segura na nota final) 
 
Eb|--------|-----------------------|--------------------| 
Bb|--------|-----------------------|--1---1---1---------| 
Gb|---5-7--|--7--------7/9----5----|--3---3---3--3/12---| 
Db|--------|-----------------------|--3---3---3--3/12---| 
Ab|--------|--5--------5/7----3----|--1---1---1--1/10---| 
Db|--------|-----------------------|--------------------| 
 

Finalizando, som limpo 
 
Eb|---------------------------------|---------------------------------| 
Bb|---------------------------------|---------------------------------| 
Gb|---------------------------------|---------------------------------| 
Db|---10p0-0------10p0-0------------|---10p0-0------10p0-0------------| 
Ab|----------8\7---------8\7-----7--|----------8\7---------8\7--------| 
Db|--0-----------0-----------7-8----|--0-----------0-----------7-8-7--| 
 

                                                     slow down 
 
Eb|---------------------------------|------------------------------| 
Bb|---------------------------------|------------------------------| 
Gb|---------------------------------|------------------------------| 
Db|---10p0-0------10p0-0------------|---10p0-0---------------------| 
Ab|----------8\7---------8\7-----7--|----------8\7---7\5---5\7-----| 
Db|--0-----------0-----------7-8----|--0-----------0-----0-----7~--| 
 

 
	  

Full key step upFull key step up
Half key step upHalf key step up
Half key step downHalf key step down
Full key step downFull key step down
Search Paypal
auto scroll beats size up size down change color hide chords simplify chords drawings columns
tab show chords e-chords YouTube Clip e-chords hide all tabs e-chords go to top tab