save to print version add songbook text version e-mail correct tuner
chordsukulelecavacokeyboardtabbassdrumsharmonicaflute Guitar Pro
close

there isn't a video lesson for this song

chords

Conquer

Key:  F#0 More
Conquer Key C#0C#0
Conquer Key D0D0
Conquer Key D#0D#0
Conquer Key E0E0(one step down)
Conquer Key F0F0(half step down)
Conquer Key F#0F#0(original key)
Conquer Key G0G0(half step up)
Conquer Key G#0G#0(one step up)
Conquer Key A0A0
Conquer Key A#0A#0
Conquer Key B0B0
Conquer Key C0C0
Capo on 3rd fret
	  		




Tuning:DADF#AD 
(You don't really need to downtune both E strings because they are not played through  
the song) 

I recommend listening to the song for timing because it is played fast. 

Intro 
d |------------------|            |---------------------------| 
A |------------------|            |---------------------------| 
F#|--3p1p0-----------|            |--0h1--1h3--3/5------------| 
D |---------5\4\2p0--| 4x    Then |-----------------4--4\2p0--| 4x 
A |-0------0---------|            |-2----2----2----0--0-------| 
D |------------------|            |---------------------------| 

End of intro just before the verse 
d |-------------------------------| 
A |-------------------0-----------| 
F#|-------0h1/3p0-----------------| 
D |--0-0------------0----2h4p2p0--| 2x 
A |-0-0-0----------0-0-0----------| 
D |-------------------------------| 

"Inside your head..." 
d |----------------------| 
A |----------------------| 
F#|-------3-1-------1-3--| 
D |--0-0-------0-0-------| 4x 
A |-0-0-0-----2-2-2------| 
D |----------------------| 

Then back to this    (no singing) 
d |-------------------------------| 
A |-------------------0-----------| 
F#|-------0h1/3p0-----------------| 
D |--0-0------------0----2h4p2p0--| 2x 
A |-0-0-0----------0-0-0----------| 
D |-------------------------------| 

"Go on, you'll find..." 
d |----------------------| 
A |----------------------| 
F#|-------3-1-------1-3--| 
D |--0-0-------0-0-------| 4x 
A |-0-0-0-----2-2-2------| 
D |----------------------| 

Little lick 
d |-------------------------| 
A |-------------------------| 
F#|-------------------------| 
D |--0---0---0---0-0--0-0---| 
A |-2-2/4-4/5-5/7-7--0-0-0--| 
D |-------------------------| 

"And all you have to do..." 
d |----------------------| 
A |----------------------| 
F#|-------3-1-------1-3--| 
D |--0-0-------0-0-------| 4x 
A |-0-0-0-----2-2-2------| 
D |----------------------| 

Back to this    (no singing) 
d |-------------------------------| 
A |-------------------0-----------| 
F#|-------0h1/3p0-----------------| 
D |--0-0------------0----2h4p2p0--| 2x 
A |-0-0-0----------0-0-0----------| 
D |-------------------------------| 

"And I know I will never understand..." 
d |----------------------| 
A |----------------------| 
F#|-------3-1-------1-3--| 
D |--0-0-------0-0-------| 4x 
A |-0-0-0-----2-2-2------| 
D |----------------------| 
                                                 "It's all such a waste" 
d |--------------------------------------------------------------------| 
A |-------------------0------------------------------0-----------------| 
F#|-------0h1/3p0------------------------0h1/3p0-----------------------| 
D |--0-0------------0----2h4p2p0----0-0------------0----2h4p2p0--------| 
A |-0-0-0----------0-0-0-----------0-0-0----------0-0-0----------------| 
D |--------------------------------------------------------------------| 

Bridge 
d |-------------------------------------| 
A |----------------------0---------0----| 
F#|-------------------------------------| 
D |--0---0---0---0---0-0-------0-0------| x2 
A |-2-2/4-4/5-5/7-7/9-9-9--9--7-7-7--7--| 
D |-------------------------------------| 

d |---------------------------------------------------------------------| 
A |---------0----------0---------0---------0------------0----------0----| 
F#|---------------------------------------------------------------------| 
D |---0--0---------0-0-------0-0-------0-0--------0--0---------0-0------| 
A |-10-10-10--10--9-9-9--9--9-9-9--9--7-7-7--7--10-10-10--10--9-9-9--9--| 
D |---------------------------------------------------------------------| 

d |---------------------------------------------| 
A |------0---------0---------0------------0-----| 
F#|---------------------------------------------| 
D |--0-0-------0-0-------0-0--------0--0--------| 2x 
A |-5-5-5--5--7-7-7--7--9-9-9--9--10-10-10--10--| 
D |---------------------------------------------| 

Starts singing on the 2nd time 
d |--------------------------------------------------| 
A |----0------0------0--------0--------0-------0-----| 
F#|--------------------------------------------------| 
D |--0------0------0---0----0-------0--------0---0---| 2x 
A |-2-2-2--0-0-0--5-5-5-4--9-9-9--10-10-10--5-5-5-4--| 
D |--------------------------------------------------| 

"To the man with a plan...                 "...To the ground" 
d |----------------------------------------------------| 
A |----0------0------0------0------0------0------0-----| 
F#|----------------------------------------------------| 
D |--0------0------0------0------0------0------0---0---| 
A |-2-2-2--0-0-0--5-5-5--4-4-4--2-2-2--0-0-0--5-5-5-4--| 
D |----------------------------------------------------| 

"Trees throw their leaves..." 
d |--------------------------------------------------| 
A |----0------0------0--------0--------0-------0-----| 
F#|--------------------------------------------------| 
D |--0------0------0---0----0-------0--------0---0---| 
A |-2-2-2--0-0-0--5-5-5-4--9-9-9--10-10-10--5-5-5-4--| 
D |--------------------------------------------------| 

"To the young little boy..." 
d |-----------------------------| 
A |----0------0------0------0---| 
F#|-----------------------------| 
D |--0------0------0------0-----| 
A |-2-2-2--0-0-0--5-5-5--4-4-4--| 
D |-----------------------------| 

"At least you're no leaf for now" 
d |------------------------| 
A |----0------0------0-----| 
F#|------------------------| 
D |--0------0------0---0---| 2x 
A |-2-2-2--0-0-0--5-5-5-4--| 
D |------------------------| 

"At least you're no leaf for now" 
d |-------------------------| 
A |----0------0---5---------| 
F#|-------------------------| 
D |--0------0---------------| 
A |-2-2-2--4-4-4--5---------| 
D |-------------------------| 
             (let the last note ring) 

I know it's a bit long but I wanted to make sure to show every little variation. Also  
i'm not sure about the 
bridge and the licks: Neil plays really fast so it's hard to see what he does, but it  
still sounds good to me. 

Sorry if it's a bit confusing and also feel free to send any corrections! 

************************************ 

| /   slide up 
| \   slide down 
| h   hammer-on 
| p   pull-off 

************************************ 
		  

auto scroll beats size up size down change color hide chords simplify chords drawings columns
tab show chords e-chords YouTube Clip e-chords hide all tabs e-chords go to top tab

share