Alex Calder

Location

Alex Calder

chords Easy easy

by  JESSGOMES

save to print version add songbook text version e-mail correct tuner
chordsukulelecavacokeyboardtabbassdrumsharmonicaflute Guitar Pro
close

there isn't a video lesson for this song

chords

Location

	  		


Intro/Bridge (x2): 

E---------------------------------------------------------| 
B---------------------------------------------------------| 
G-----5----4-4------5----4-4------4----0-0-----4----0-0---|    (x2) 
D--0----0---------0----0-------0----0--------0----0-------| 
A---------------------------------------------------------| 
E---------------------------------------------------------| 


E---------------------------------------| 
B---------------------------------------| 
G-----0-----------------0---------------| 
D--0----0--4-4---0----0--4-4------------| 
A---------------------------------------| 
E---------------------------------------| 


Verse: 


D    F           C 
Stay in my room 

D     F            C 
inside my home 

D     F 
is where i go 


D    F          C 
Thinking again 

D    F         C 
about my friends 

D         F 
where they go 


Repeat Intro/Bridge (x1) 


Verse: 


D    F           C 
Stay in my room 

D     F            C 
inside my home 

D     F 
is where i go 


D    F          C 
Drinking again 

D    F         C 
without my friends 

D         F 
no one knows 



hide this tabHide
tab
Solo (x4) E-------------------------------------------------------------------------------| B-------------------------------------------------------------------------------| G-------------------------------------------------------------------------------| D-----7-------7--------7-------7--------6--------6--------6--------6------------| A-7-7---7-7-7---7-7-7---7-7-7----7-7-7----7-7-7----7-7-7----7-7-7----7----------| E-------------------------------------------------------------------------------|
tab
Verse: D F C Stay in my room D F C inside my home D F is where i go D F C Thinking again D F C about my friends D F where they go D F C Stay in my room D F C inside my home D F is where i go D F C Drinking again D F C without my friends D F no one knows

Full key step upFull key step up
Half key step upHalf key step up
Half key step downHalf key step down
Full key step downFull key step down
hide glossary

See also:

chords Ira! - Tanto Quanto Eu chords Ira! - Vida Passageira chords Ira! - Eu Quero Sempre Mais chords Ike & Tina Turner - Proud Mary chords Ira! - Dias de Luta chords Deep Purple - Lazy/new chords
e-chords

Other versions:

chords Alex Calder - Location chords Khalid - Location chords Ajr - Location chords HONNE - Location Unknow
auto scroll beats size up size down change color hide chords simplify chords drawings columns
tab show chords e-chords YouTube Clip e-chords hide all tabs e-chords go to top tab

share