Aditive

Adeus

Aditive

chords

by  ZECADAVIOLA

save to print version add songbook text version e-mail correct tuner
chordsukulelecavacokeyboardtabbassdrumsharmonicaflute Guitar Pro
close

there isn't a video lesson for this song

chords

Adeus

	  		Tom: B 
		 
Introdução 
  
 (2x) 
 E|-----------------------------------------------------------------14--- 
 B|------12--14--12--11--12--11----------12--14--12--11--12--11--12------ 
 G|--11--------------------------11---11---------------------------------           
 D|---------------------------------------------------------------------- 
 A|---------------------------------------------------------------------- 
 E|---------------------------------------------------------------------- 

 E|---------------------------------------------------------------------- 
 B|--12--11-----12--11--------14--12--11--14--12--11--------------------- 
 G|----------11------------11--------------------------------------------          
 D|---------------------------------------------------------------------- 
 A|---------------------------------------------------------------------- 
 E|---------------------------------------------------------------------- 
 (2x) 
 E|------------14-------------------------14--12--11--------------------- 
 B|-------12-------12--12--12--------12---------------12----------------- 
 G|--11---------------------------11------------------------------------- 
 D|---------------------------------------------------------------------- 
 A|---------------------------------------------------------------------- 
 E|---------------------------------------------------------------------- 
 (2x) 
 E|--12--11-----14--12--11----------------------------------------------- 
 B|----------12--------------12------------------------------------------ 
 G|----------------------------------------------------------------------      
 D|---------------------------------------------------------------------- 
 A|---------------------------------------------------------------------- 
 E|---------------------------------------------------------------------- 
 (2x) 
 E|--12--11-------------------------------------------------------------- 
 B|------------12-------------------------------------------------------- 
 G|-----------------11----12-12/14--12-----------------------------------                 
 D|---------------------------------------------------------------------- 
 A|---------------------------------------------------------------------- 
 E|---------------------------------------------------------------------- 

 B                    F#          G#        E 
Não consigo acreditar que você vai me deixar 
 B                     F#         G#     E 
Que vai dizer adeus pra nunca mais voltar 
 B                     F#         G#      E 
Só quero entender pois eu dei o meu melhor  
 B                    F#         G#     E 
Eu sempre respeitei o seu modo de pensar  

(Refrão) 
B  F# G#  E       B  F# G#  E 
Não vai voltar ,  Não vai voltar    
B  F# G#  E       B  F# G#  E 
Não vai voltar ,  Não vai voltar 

 
hide this tabHide
tab
(2x) E|-------------14----------------------14--12--11-------- B|--------12-------12--12--12-----12---------------12---- G|---11------------------------11------------------------ D|------------------------------------------------------- A|------------------------------------------------------- E|------------------------------------------------------- (2x) E|--12--11------14--12--11------------------------------- B|----------12--------------12--------------------------- G|------------------------------------------------------- D|------------------------------------------------------- A|------------------------------------------------------- E|------------------------------------------------------- (2x) E|--12--11----------------------------------------------- B|-----------12------------------------------------------ G|----------------11----12-12/14--12--------------------- D|------------------------------------------------------- A|------------------------------------------------------- E|-------------------------------------------------------
tab
B F# G# E Se um dia você for , Algum dia ira voltar B F# G# E Não vou te esperar , cansei d me iludir B F# G# E Eu não quero ser mais um a gostar de você B F# G# E Perdi o meu tempo , Por pensar que seria feliz B F# G# E B F# G# E Não vai voltar , Não vai voltar B F# G# E B F# G# E Não vai voltar , Não vai voltar B F# G# E - 2x
hide this tabHide
tab
E|--12--11----------------------14--12--11--12--11--12--- B|------------11--13--11--13----------------------------- G|------------------------------------------------------- D|------------------------------------------------------- A|------------------------------------------------------- E|-------------------------------------------------------
tab
B F# G# E B F# G# E Não vai voltar , Não vai voltar B F# G# E B F# G# E Não vai voltar , Não vai voltar

Full key step upFull key step up
Half key step upHalf key step up
Half key step downHalf key step down
Full key step downFull key step down
hide glossary

See also:

chords Forfun - Historia de Verão chords Nx Zero - Cartas Pra Você chords CPM 22 - O Mundo Dá Voltas chords Nx Zero - Pela última vez (ver. 2) chords Nx Zero - Silêncio chords Nx Zero - Só Rezo
e-chords

Other versions:

chords Forrozão Tropikália - Adeus chords Junk - Adeus chords Kaluana - Adeus chords Lactuca Sativa - Adeus chords Magaivers - Adeus chords Moptop - Adeus
auto scroll beats size up size down change color hide chords simplify chords drawings columns
tab show chords e-chords YouTube Clip e-chords hide all tabs e-chords go to top tab

share