Accept

Too High To Get It Right

Accept

chords

by  ABELAMIN

save to print version add songbook text version e-mail correct tuner
chordsukulelecavacokeyboardtabbassdrumsharmonicaflute Guitar Pro
close

there isn't a video lesson for this song

chords

Too High To Get It Right

	  		Words and Music by P. Baltes, U. Dirkschneider, J. Fischer, W. Hoffmann, S. Kaufmann and Deaffy 
Arranged by Accept 

Gtr I (E A D G B E) - 'Dist 1' 
Gtr II (E A D G B E) - 'Dist 2' 
Gtr III (E A D G B E) - 'Dist 3' 

 Intro 
  Q=135 
 4/4 
  Gtr I 
   E  E  E E  E  E E  E    E  E  E E  E  E E  E 
|-----------------------|-----------------------| 
|-----------------------|-----------------------| 
|-4-(4)---4-(4)---4-(4)-|-4-(4)---4-(4)---4-(4)-| 
|-2h=4--4-2h=4--4-2h=4--|-2h=4--4-2h=4--4-2h=4--| 
|----2--2----2--2----2--|----2--2----2--2----2--| 
|-----------------------|-----------------------| 
| 
| Gtr II 
| E  E  E E  E  E E  E    E  E  E E  E  E E  E 
|-4p=2--2-4p=2--2-4p=2--|-4p=2--2-4p=2--2-4p=2--| 
|-0-(0)-0-0-(0)-0-0-(0)-|-0-(0)-0-0-(0)-0-0-(0)-| 
|-----------------------|-----------------------| 
|-----------------------|-----------------------| 
|-----------------------|-----------------------| 
|-----------------------|-----------------------| 
| 
| Gtr III 
| W                       W 
|-----------------------|-----------------------| 
|-----------------------|-----------------------| 
|-----------------------|-----------------------| 
|-----------------------|-----------------------| 
|-----------------------|-----------------------| 
|-----------------------|-----------------------| 


  B5                                      D5  E5 
   E  E  E E  E  E E  E     E   E  E E  E  E E  E 
|-----------------------|-------------------------| 
|-----------------------|-------------------------| 
|-4-(4)---4-(4)---4-(4)-|--4--(4)---4-(4)---4-(4)-| 
|-2h=4--4-2h=4--4-2h=4--|--2h==4--4-2h=4--4-2h=4--| 
|----2--2----2--2----2--|------2--2----2--2----2--| 
|-----------------------|-------------------------| 
| 
| E  E  E E  E  E E  E     E   E  E E  E  E E  E 
|-4p=2--2-4p=2--2-4p=2--|--4p==2--2-4p=2--2-4p=2--| 
|-0-(0)-0-0-(0)-0-0-(0)-|--0--(0)-0-0-(0)-0-0-(0)-| 
|-----------------------|-------------------------| 
|-----------------------|-------------------------| 
|-----------------------|-------------------------| 
|-----------------------|-------------------------| 
| 
| W                       +H           E  E E  E 
|-----------------------|-------------------------| 
|-----------------------|----------------------5--| 
|-4---------------------|-(4)-------------2----4--| 
|-4---------------------|-(4)-------------0----2--| 
|-2---------------------|-(2)---------------------| 
|-----------------------|-------------------------| 


                                        G5/D 
    E   E  E E  E  E E  E     E   E  E E  E  E E  E 
|-------------------------|-------------------------| 
|-------------------------|-------------------------| 
|--2h==4--4-2h=4--4-2h=4--|--2h==4--4-2h=4--4-2h=4--| 
|--2--(2)-2-2-(2)-2-2-(2)-|--2--(2)-2-2-(2)-2-2-(2)-| 
|-------------------------|-------------------------| 
|-------------------------|-------------------------| 
| 
|  E   E  E E  E  E E  E     E   E  E E  E  E E  E 
|--0--(0)-0-0-(0)-0-0-(0)-|--0--(0)-0-0-(0)-0-0-(0)-| 
|--0--(0)-0-0-(0)-0-0-(0)-|--0--(0)-0-0-(0)-0-0-(0)-| 
|--2h==4--4-2h=4--4-2h=4--|--2h==4--4-2h=4--4-2h=4--| 
|-------------------------|-------------------------| 
|-------------------------|-------------------------| 
|-------------------------|-------------------------| 
| 
|                                           PM 
| +W                        +H           E  E Q 
|-------------------------|-------------------------| 
|-(5)---------------------|-(5)---------------------| 
|-(4)---------------------|-(4)----------0----0-----| 
|-(2)---------------------|-(2)----------0----0-----| 
|-------------------------|-----------------2-------| 
|-------------------------|-------------------------| 


  B5                                      D5  A5 
   E  E  E E  E  E E  E     E   E  E E  E  E E  E 
|-----------------------|--------------------------| 
|-----------------------|--------------------------| 
|-4-(4)---4-(4)---4-(4)-|--4--(4)---4-(4)---4-(4)--| 
|-2h=4--4-2h=4--4-2h=4--|--2h==4--4-2h=4--4-2h=4---| 
|----2--2----2--2----2--|------2--2----2--2----2---| 
|-----------------------|--------------------------| 
| 
| E  E  E E  E  E E  E     E   E  E E  E  E E  E 
|-4p=2--2-4p=2--2-4p=2--|--4p==2--2-4p=2--2-4p=2---| 
|-0-(0)-0-0-(0)-0-0-(0)-|--0--(0)-0-0-(0)-0-0-(0)--| 
|-----------------------|--------------------------| 
|-----------------------|--------------------------| 
|-----------------------|--------------------------| 
|-----------------------|--------------------------| 
| 
| W                       +H           E  E E  E 
|-----------------------|--------------------------| 
|-----------------------|--------------------------| 
|-4---------------------|-(4)-------------2----2---| 
|-4---------------------|-(4)-------------0----2---| 
|-2---------------------|-(2)------------------0---| 
|-----------------------|--------------------------| 


                                              A5 
    E   E  E E  E  E E  E     E   E  E E  E  E E  E 
|-------------------------|-------------------------| 
|-------------------------|-------------------------| 
|-------------------------|-------------------------| 
|--0h==2--2-0h=2--2-0h=2--|--0h==2--2-0h=2--2-0h=2--| 
|--0--(0)-0-0-(0)-0-0-(0)-|--0--(0)-0-0-(0)-0-0-(0)-| 
|-------------------------|-------------------------| 
| 
|  E   E  E E  E  E E  E     E   E  E E  E  E E  E 
|-------------------------|-------------------------| 
|-------------------------|-------------------------| 
|--2--(2)-2-2-(2)-2-2-(2)-|--2--(2)-2-2-(2)-2-2-(2)-| 
|--0h==2--2-0h=2--2-0h=2--|--0h==2--2-0h=2--2-0h=2--| 
|--0--(0)-0-0-(0)-0-0-(0)-|--0--(0)-0-0-(0)-0-0-(0)-| 
|-------------------------|-------------------------| 
| 
|                                        PM-| 
| +W                        +H           E  E Q 
|-------------------------|-------------------------| 
|-------------------------|-------------------------| 
|-(2)---------------------|-(2)---------------2-----| 
|-(2)---------------------|-(2)---------------2-----| 
|-(0)---------------------|-(0)----------0----0-----| 
|-------------------------|-----------------2-------| 


  B5                                             D5  E5 
                                 ~~~~~ 
    W                            +H            Q.      E 
|-17-------------------------|-(17)-----------------------| 
|-17b19======================|=(17)r-----------------7--| 
|----------------------------|----------------------------| 
|----------------------------|----------------------------| 
|----------------------------|----------------------------| 
|----------------------------|---------------/x\----------| 
| 
|  E      E  E E  E  E E  E      E    E  E E  E  E E  E 
|----------------------------|----------------------------| 
|----------------------------|----------------------------| 
|--4-----(4)---4-(4)---4-(4)-|---4---(4)---4-(4)---4-(4)--| 
|--2h=====4--4-2h=4--4-2h=4--|---2h===4--4-2h=4--4-2h=4---| 
|---------2--2----2--2----2--|--------2--2----2--2----2---| 
|----------------------------|----------------------------| 
| 
|  W                            +H            E  E E  E 
|----------------------------|----------------------------| 
|----------------------------|------------------------5---| 
|--4-------------------------|--(4)--------------2----4---| 
|--4-------------------------|--(4)--------------0----2---| 
|--2-------------------------|--(2)-----------------------| 
|----------------------------|----------------------------| 


                                         G5/D 
   PM        PM                   ~~~          PM------- 
    E   E  E  E  E  E E  E     E   Q.      S  S E E  E 
|--------------------------|---------------------------| 
|-----10p=9-----9----7-----|---------------------------| 
|-----11p=9-----9----7-----|---------------------------| 
|------------------9----9--|-----9------9p=7---------| 
|--------------------------|-------------------9-8--7--| 
|--7--------10-------------|---------------------------| 
| 
|  E   E  E  E  E  E E  E     E   E  E E  E    E E  E 
|--------------------------|---------------------------| 
|--------------------------|---------------------------| 
|--2h==4--4--2h=4--4-2h=4--|--2h==4--4-2h=4----4-2h=4--| 
|--2--(2)-2--2-(2)-2-2-(2)-|--2--(2)-2-2-(2)---2-2-(2)-| 
|--------------------------|---------------------------| 
|--------------------------|---------------------------| 
| 
|                                              PM 
| +W                         +H           E    E Q 
|--------------------------|---------------------------| 
|-(5)----------------------|-(5)-----------------------| 
|-(4)----------------------|-(4)----------0------0-----| 
|-(2)----------------------|-(2)----------0------0-----| 
|--------------------------|-------------------2-------| 
|--------------------------|---------------------------| 


   B5                                          D5  A5 
                        \1_____| 
 -| 
   E  Q.       E   E E  E     +H           H 
|---------------------------|-------------------------| 
|---------------------------|-------------------------| 
|---------------------------|-------------------------| 
|---------------------------|-------------------------| 
|-----7b9------7------------|-------------------------| 
|-10--------------10-7p=0---|-(0)---------/x\---------| 
| 
|  E  E   E E  E   E E  E      E   E  E E  E  E E  E 
|---------------------------|-------------------------| 
|---------------------------|-------------------------| 
|--4-(4)----4-(4)----4-(4)--|--4--(4)---4-(4)---4-(4)-| 
|--2h=4---4-2h=4---4-2h=4---|--2h==4--4-2h=4--4-2h=4--| 
|-----2---2----2---2----2---|------2--2----2--2----2--| 
|---------------------------|-------------------------| 
| 
|  W                          +H           E  E E  E 
|---------------------------|-------------------------| 
|---------------------------|-------------------------| 
|--4------------------------|-(4)-------------2----2--| 
|--4------------------------|-(4)-------------0----2--| 
|--2------------------------|-(2)------------------0--| 
|---------------------------|-------------------------| 


  A5          A5                A5              A5       A5 
                                                \2___/ 
                    |--3--| 
   E  a E S S  S S  S  S  S S S S  E   S    +E  E   +Q   +Q     Q   a 
|---------7------7------------------------|---------------------------| 
|--0--5S7---7-10-------7------------------|---------------------------| 
|------------------10----10p9p7---9-7-|-(7)p0---(0)--(0)----------| 
|-------------------------------9---------|---------------------------| 
|-----------------------------------------|---------------------------| 
|-----------------------------------------|--------------------/x\----| 
| 
|                                                         PM 
|  Q.          E   +Q           Q           +E  Q.        E  E  Q   a 
|-----------------------------------------|---------------------------| 
|-----------------------------------------|---------------------------| 
|--2-----------2---(2)----------2---------|-(2)-2---------------------| 
|--2-----------2---(2)----------2---------|-(2)-2---------------------| 
|--0-----------0---(0)----------0---------|-(0)-0---------0-----------| 
|-----------------------------------------|------------------xS=x\----| 
| 
|                                                         PM-| 
| +Q.          E   +Q           Q           +E  Q.        E  E  Q   a 
|-----------------------------------------|---------------------------| 
|-----------------------------------------|---------------------------| 
|-(2)----------2---(2)----------2---------|-(2)-2---------------------| 
|-(2)----------2---(2)----------2---------|-(2)-2---------2-----2-----| 
|-(0)----------0---(0)----------0---------|-(0)-0---------0-----0-----| 
|-----------------------------------------|------------------2--------| 


   Verse 
    B5        E5             A5             B5         A5 
    Gtrs I, II 
                                                         PM 
     H.      E E   +H.      E E   +H.      E E   +H     E E Q   4x 
||--------------|--------------|--------------|----------------|| 
||o-----------5-|-(5)----------|--------------|---------------o|| 
||--4---------4-|-(4)--------2-|-(2)--------4-|-(4)----2---2---|| 
||--4---------2-|-(2)--------2-|-(2)--------4-|-(4)----2---2---|| 
||o-2-----------|------------0-|-(0)--------2-|-(2)----0---0--o|| 
||--------------|--------------|--------------|----------2-----|| 


 Pre-Chorus 
  $ 
   D5         A5         B5       G5/D   B5    G5/D 
                           PM--|    PM------|        PM| 
   W          W          Q  E E E Q  E   E E E E +Q   E E 
|----------|----------|---------------|-------------------| 
|-3--------|----------|---------------|-------------------| 
|-2--------|-2--------|----------0----|-------0-(0)-------| 
|-0--------|-2--------|-4--------0--0-|-4-----0-(0)-------| 
|----------|-0--------|-2--2-0-2------|-2-0-2--------2-0--| 
|----------|----------|---------------|-------------------| 


   D5         A5 
                        PM------------| 
  W          W          E E E E E E E E   E E E E E E  Q 
|----------|----------|-----------------|-------------------| 
|-3--------|----------|-----------------|-------------------| 
|-2--------|-2--------|-----------------|-------------------| 
|-0--------|-2--------|-----------------|-------------------| 
|----------|-0--------|-----------------|-------------------| 
|----------|----------|-2-2-2-2-2-2-2-2-|-2h3-2h3-2---/x\---| 


 Chorus 
   B5   G5/D E5        BmE5B5/F#  B5   G5/D A5 
                                                     PM| 
  H    Q.   E   +Q.   E E Q.     H    Q.   E   +Q.   E E Q. 
|-------------|----------------|-------------|-----------------| 
|-------------|----------------|-------------|-----------------| 
|-4----0----4-|-(4)---4-4-4----|-4----0----2-|-(2)-------------| 
|-4----0----2-|-(2)---0-2-4----|-4----0----2-|-(2)-------------| 
|-2-----------|----------------|-2---------0-|-(0)-----0-2-----| 
|-------------|----------------|-------------|-------2---------| 


                                      To Coda 
  B5   G/D  E5        BmE5B5/F#  B5   G/D  A5 
   H    Q.   E   +Q.   E E Q.     H    Q.   E 
|-------------|----------------|-------------| 
|------0------|----------------|------0------| 
|-4----0----4-|-(4)---4-4-4----|-4----0----2-| 
|-4----0----2-|-(2)---0-2-4----|-4----0----2-| 
|-2-----------|----------------|-2---------0-| 
|-------------|----------------|-------------| 
| 
| Gtr III 
| W              W               W 
|-------------|----------------|-------------| 
|-------------|----------------|-------------| 
|-------------|----------------|-------------| 
|-------------|----------------|-------------| 
|-------------|----------------|-------------| 
|-------------|----------------|-------------| 


  +W                 +W 
|------------------|---------------| 
|------------------|---------------| 
|-(2)--------------|-(2)-----------| 
|-(2)--------------|-(2)-----------| 
|-(0)--------------|-(0)-----------| 
|------------------|---------------| 
| 
|     /1______________| 
|            ~~~~~~~~~~~~ 
|  E  Q.    +H       +H.      Q 
|------------------|---------------| 
|------------------|---------------| 
|------------------|---------------| 
|-----0-----(0)----|-(0)-----------| 
|------------------|---------------| 
|------------------|---------------| 


 Guitar Solo 
  E5 
                ~~~~                 PM 
                                                        |--3--| 
   Q.           H         a  E    E  E  E E   +E  Q     S   S S 
|-10----------------------------|-------------------------------| 
|-10b12-------12--------------|-7-----9-7b9-(7)---------------| 
|-------------------------------|-7-----9-7b9-(7)-------7h=10p7-| 
|-------------------------7S=9--|----9------------x\------------| 
|-------------------------------|-------------------------------| 
|-------------------------------|-------------------------------| 
| 
| Gtr II 
|  E     E  E   E  E  E E    E    E  E  E E    E  E  E  E 
|-------------------------------|-------------------------------| 
|-------------------------------|-------------------------------| 
|--4----(4)-----4-(4)---4---(4)-|-4-(4)---4---(4)----4-(4)------| 
|--2h====4--4---2h=4--4-2h===4--|-2h=4--4-2h===4--4--2h=4-------| 
|--------2--2------2--2------2--|----2--2------2--2-----2-------| 
|-------------------------------|-------------------------------| 
| 
| Gtr III 
|  E     E  E   E  E  E E    E    E  E  E E    E  E  E  E 
|--4p====2--2---4p=2--2-4p===2--|-4p=2--2-4p===2--2--4p=2-------| 
|--0----(0)-0---0-(0)-0-0---(0)-|-0-(0)-0-0---(0)-0--0-(0)------| 
|-------------------------------|-------------------------------| 
|-------------------------------|-------------------------------| 
|-------------------------------|-------------------------------| 
|-------------------------------|-------------------------------| 


  A5/E 
                                                                      \1/  \1/  \1/ 
                                         |---3---| 
   E     E    E   E  E  E    +E  +S  S   E E     E S S S S a  Q    S +S   +S   +S 
|--------------------------------------|--------------------------------------------| 
|--------------------------------------|--------------------------------------------| 
|-7b9-7b9r7b9-------4b6==(4)r(4)p2-|-4-2----------------------------------------| 
|-----------------xS=x-----------------|---------4-3-2------------------------------| 
|--------------------------------------|---------------5-2-5S=2p===0-(0)--(0)--(0)--| 
|--------------------------------------|--------------------------------------------| 
| 
|  E     E    E   E  E  E     E   E      E    E    E   E      E  E E       E 
|--------------------------------------|--------------------------------------------| 
|--------------------------------------|--------------------------------------------| 
|--2h====4----4---2h=4--4-----2h==4----|-2h===4----4---2h=====4--4-2h======4--------| 
|--2----(2)---2---2-(2)-2-----2--(2)---|-2---(2)---2---2-----(2)-2-2------(2)-------| 
|--------------------------------------|--------------------------------------------| 
|--------------------------------------|--------------------------------------------| 
| 
|  E     E    E   E  E  E     E   E      E    E    E   E      E  E E       E 
|--0----(0)---0---0-(0)-0-----0--(0)---|-0---(0)---0---0-----(0)-0-0------(0)-------| 
|--0----(0)---0---0-(0)-0-----0--(0)---|-0---(0)---0---0-----(0)-0-0------(0)-------| 
|--2h====4----4---2h=4--4-----2h==4----|-2h===4----4---2h=====4--4-2h======4--------| 
|--------------------------------------|--------------------------------------------| 
|--------------------------------------|--------------------------------------------| 
|--------------------------------------|--------------------------------------------| 


  E5 
                 PM 
                                                                  |-3--| 
  E  Q       +E  E  Q     +E    E  E   Q       S     +S  +S  S E  S  S S 
|-----------------------------|-------10b12----------------------------x-| 
|-------------------7b9---(7)-|-------10b12--------------------------x---| 
|---9b11r==(9)----7b9---(7)-|----7-----------9b11==(9)r(9)p7----x------| 
|----------------9------------|-9------------------------------9---------| 
|-7---------------------------|------------------------------------------| 
|-----------------------------|------------------------------------------| 
| 
| E  E     E  E  E  E   E  E    E  E   E    E  E          E    E  E 
|-----------------------------|------------------------------------------| 
|-----------------------------|------------------------------------------| 
|-4-(4)-------4-(4)-----4-(4)-|-4-(4)-------4-(4)--------------4-(4)-----| 
|-2h=4-----4--2h=4--4---2h=4--|-2h=4---4----2h=4----------4----2h=4------| 
|----2-----2-----2--2------2--|----2---2-------2----------2-------2------| 
|-----------------------------|------------------------------------------| 
| 
| E  E     E  E  E  E   E  E    E  E   E    E  E          E    E  E 
|-4p=2-----2--4p=2--2---4p=2--|-4p=2---2----4p=2----------2----4p=2------| 
|-0-(0)----0--0-(0)-0---0-(0)-|-0-(0)--0----0-(0)---------0----0-(0)-----| 
|-----------------------------|------------------------------------------| 
|-----------------------------|------------------------------------------| 
|-----------------------------|------------------------------------------| 
|-----------------------------|------------------------------------------| 


  D5/A 
                                                         ~~~~ 
                      |-3--|  |-----5-----| 
   E.        +S  S  S S  S S  S  S S    S S Q           +W 
|-10b12r====(10)p7------------------------------------|-----------------------------| 
|------------------10-7h10p7-----9-7------7-7---------|-(7)-------------------------| 
|----------------------------10--------10---9b11======|=(9)r------------------------| 
|-----------------------------------------------------|-----------------------------| 
|-----------------------------------------------------|-----------------------------| 
|-----------------------------------------------------|-----------------------------| 
| 
|  E     E       E    E       E      E      E      E     E    E  E E  E  E E  E 
|-----------------------------------------------------|-----------------------------| 
|-----------------------------------------------------|-----------------------------| 
|-----------------------------------------------------|-----------------------------| 
|--0h====2-------2----0h======2------2------0h=====2--|--0h===2--2-0h=2--2-0h=2-----| 
|--0----(0)------0----0------(0)-----0------0-----(0)-|--0---(0)-0-0-(0)-0-0-(0)----| 
|-----------------------------------------------------|-----------------------------| 
| 
|  E     E       E    E       E      E      E      E     E    E  E E  E  E E  E 
|-----------------------------------------------------|-----------------------------| 
|-----------------------------------------------------|-----------------------------| 
|--2----(2)------2----2------(2)-----2------2-----(2)-|--2---(2)-2-2-(2)-2-2-(2)----| 
|--0h====2-------2----0h======2------2------0h=====2--|--0h===2--2-0h=2--2-0h=2-----| 
|--0----(0)------0----0------(0)-----0------0-----(0)-|--0---(0)-0-0-(0)-0-0-(0)----| 
|-----------------------------------------------------|-----------------------------| 


   Verse 2 
    B5            E5                 A5 
    Gtr I 
     H.          E E   +H.          E E 
||------------------|------------------| 
||o---------------5-|-(5)--------------| 
||--4-------------4-|-(4)------------2-| 
||--4-------------2-|-(2)------------2-| 
||o-2---------------|----------------0-| 
||------------------|------------------| 
| 
|   Gtr II 
|       PM------|          PM------| 
|   Q   E E E E E E   +Q   E E E E E E 
||------------------|------------------| 
||o---------------5-|-(5)--------------| 
||--4-------------4-|-(4)------------2-| 
||--4-------------2-|-(2)--2-2-2-2-2-2-| 
||o-2---2-2-2-2-2---|----------------0-| 
||------------------|------------------| 


                    1.,2.              3. 
                 B5         A5         B5     A5    B5 
                              PM                PM 
   +H.          E E   +H     E E Q   3x  H     E E E E 
|------------------|----------------||-----------------| 
|------------------|---------------o||-----------------| 
|-(2)------------4-|-(4)----2---2---||-(4)----2---2-4--| 
|-(2)------------4-|-(4)----2---2---||-(4)----2---2-4--| 
|-(0)------------2-|-(2)----0---0--o||-(2)----0---0-2--| 
|------------------|----------2-----||----------2------| 
| 
|      PM------|              PM                PM 
| +Q   E E E E E E   +H     E E Q   3x  H     E E E E 
|------------------|----------------||-----------------| 
|------------------|---------------o||-----------------| 
|-(2)------------4-|-(4)----2---2---||-(4)----2---2-4--| 
|-(2)------------4-|-(4)----2---2---||-(4)----2---2-4--| 
|-(0)--0-0-0-0-0-2-|-(2)----0---0--o||-(2)----0---0-2--| 
|------------------|----------2-----||----------2------| 


                                                         D.S. al Coda 
  B5         D5  E5                 A5                 B5 
  +H.          E E   +H.          E E   +H.          E E   +W 
|------------------|------------------|------------------|---------------| 
|----------------5-|-(5)--------------|------------------|---------------| 
|-(4)------------4-|-(4)------------2-|-(2)------------4-|-(4)-----------| 
|-(4)------------2-|-(2)------------2-|-(2)------------4-|-(4)-----------| 
|-(2)--------------|----------------0-|-(0)------------2-|-(2)-----------| 
|------------------|------------------|------------------|---------------| 
| 
|      PM----|            PM------|          PM------| 
| +Q   E E E E E E   +Q   E E E E E E   +Q   E E E E E E   +H     H 
|------------------|------------------|------------------|---------------| 
|----------------5-|-(5)--------------|------------------|---------------| 
|-(4)--------2---4-|-(4)------------2-|-(2)------------4-|-(4)-----------| 
|-(4)--------0---2-|-(2)--2-2-2-2-2-2-|-(2)------------4-|-(4)----x\-----| 
|-(2)--2-2-2-------|----------------0-|-(0)--0-0-0-0-0-2-|-(2)----x\-----| 
|------------------|------------------|------------------|--------x\-----| 


 Guitar Solo 2 
  & 
  A5 
  Gtr I 
              /1_____________| 
   E  T T T T H      +Q     +H     H 
|-----x-------------------|--------------| 
|-------x-----------------|--------------| 
|---------x---------------|--------------| 
|-----------x-------------|--------x\----| 
|-------------0------(0)--|-(0)----x\----| 
|-------------------------|--------------| 
| 
| Gtr II 
|  W                        +W 
|-------------------------|--------------| 
|-------------------------|--------------| 
|-(2)---------------------|-(2)----------| 
|-(2)---------------------|-(2)----------| 
|-(0)---------------------|-(0)----------| 
|-------------------------|--------------| 
| 
| Gtr III 
|  W                        +W 
|-------------------------|--------------| 
|-------------------------|--------------| 
|-(2)---------------------|-(2)----------| 
|-(2)---------------------|-(2)----------| 
|-(0)---------------------|-(0)----------| 
|-------------------------|--------------| 


  B5                        E5                              A5 
                                 \1/ 
                                                     ~~~~~~~ 
   Q.        Q.        Q         E   E  E  E  +E.    S  +Q 
|-----------------------------|---------------------------------| 
|-17--------17--------17p=====|==0---0----14-(14)---------------| 
|-16b18-----16b18-----16b18---|-----------14-(14)---------------| 
|-----------------------------|--------16-----------16-(16)-----| 
|-----------------------------|---------------------------------| 
|-----------------------------|---------------------------------| 
| 
|  H.                  E    E   +H.                      E  E 
|-----------------------------|---------------------------------| 
|---------------------------5-|-(5)-----------------------------| 
|--4------------------------4-|-(4)-------------------------2---| 
|--4------------------------2-|-(2)-------------------------2---| 
|--2--------------------------|-----------------------------0---| 
|-----------------------------|---------------------------------| 
| 
|  PM-------------------------------------------------------| 
|  E    E E  E    E E  E    E    E   E  E  E   E  E      E  E 
|-----------------------------|---------------------------------| 
|-----------------------------|---------------------------------| 
|-----------------------------|---------------------------------| 
|-----------------------------|---------------------------------| 
|--2----2-2--2----2-2--2----2-|--2---2--2--2---2--2------2--2---| 
|-----------------------------|---------------------------------| 


                                                  B5 
   S   S  S  S  S  S  S     +S   S  S  S  S  S  S  S  S 
|-21S=17-14-17p14----14----(14)-14-14----14-19p14-14-14-| 
|-----------------17-17b19-(17)-------18----------------| 
|-------------------------------------------------------| 
|-------------------------------------------------------| 
|-------------------------------------------------------| 
|-------------------------------------------------------| 
| 
| +H.                                        E     E 
|-------------------------------------------------------| 
|-------------------------------------------------------| 
|-(2)----------------------------------------------4----| 
|-(2)----------------------------------------------4----| 
|-(0)----------------------------------------------2----| 
|-------------------------------------------------------| 
| 
|  PM---------------------------------------------------- 
|  E      E     E     E          E     E     E     E 
|-------------------------------------------------------| 
|-------------------------------------------------------| 
|-------------------------------------------------------| 
|-------------------------------------------------------| 
|--2------2-----2-----2----------2-----2-----2-----2----| 
|-------------------------------------------------------| 


                            A5         B5                          E5 
                \2 
   S   S  S  S  H            +E   E     Q      +E.   S S S S S S S S S 
|-----14-----------------------------|---------------------------------| 
|-14-----14-14-17-----------(17)S=x\-|---------------------------------| 
|--------------16b18========(16)rSx\-|-4b6r==(4)---2-----------------| 
|------------------------------------|-----------------4-3-2p0---------| 
|------------------------------------|-------------------------4-3-2p0-| 
|------------------------------------|---------------------------------| 
| 
|                       PM| 
| +H                    E E   Q         H.                     E   E 
|------------------------------------|---------------------------------| 
|------------------------------------|-----------------------------5---| 
|-(4)-------------------------2------|--4--------------------------4---| 
|-(4)-------------------------2------|--4--------------------------2---| 
|-(2)-------------------0-----0------|--2------------------------------| 
|-------------------------2----------|---------------------------------| 
| 
|-------------------------|             PM-------------------------| 
|  E      E     E     E E E   Q         E    E  E  E   E   E   E   E 
|------------------------------------|---------------------------------| 
|------------------------------------|---------------------------------| 
|------------------------------------|---------------------------------| 
|------------------------------------|---------------------------------| 
|--2------2-----2-----2-0-----0------|--2----2--2--2---2---2---2---2---| 
|-------------------------2----------|---------------------------------| 


  E5                     A5                                         B5 
                 ~~~~ 
                              |----6-----| |----6----| 
  E   Q.         Q    Q       S  S S S S S S S S S S S E S S    +Q 
|----12--------------------|------------------------------------------| 
|----12b14-----------------|---------------------------3---5b7==(5)---| 
|--------------11---x\---|---------------2---2-4p2-4---4------------| 
|---------------------x\---|--2h=4p2h4p2-4---4------------------------| 
|--------------------------|------------------------------------------| 
|-x------------------------|------------------------------------------| 
| 
| H.                  E  E   +H.                                 E  E 
|--------------------------|------------------------------------------| 
|-5------------------------|------------------------------------------| 
|-4----------------------2-|-(2)------------------------------------4-| 
|-2----------------------2-|-(2)------------------------------------4-| 
|------------------------0-|-(0)------------------------------------2-| 
|--------------------------|------------------------------------------| 
| 
| PM------------------------------------------------------------------- 
| E   E    E E   E  E E  E    E      E     E     E     E E       E  E 
|--------------------------|------------------------------------------| 
|--------------------------|------------------------------------------| 
|--------------------------|------------------------------------------| 
|--------------------------|------------------------------------------| 
|-2---2----2-2---2--2-2--2-|--2------2-----2-----2-----2-2-------2--2-| 
|--------------------------|------------------------------------------| 


   +E.     S  +S   E    S +E   E   E   E 
|----------------2---------------------| 
|-(5)r---5-(5)-----------------3-5-| 
|----------------------4-(4)-4---------| 
|----------------------------------------| 
|----------------------------------------| 
|----------------------------------------| 
| 
| +W 
|----------------------------------------| 
|----------------------------------------| 
|-(4)------------------------------------| 
|-(4)------------------------------------| 
|-(2)------------------------------------| 
|----------------------------------------| 
| 
|------------------------------------| 
|  E   E      E      E    E   E   E   E 
|----------------------------------------| 
|----------------------------------------| 
|----------------------------------------| 
|----------------------------------------| 
|--2---2------2------2----2---2---2---0--| 
|----------------------------------------| 


  G5             A5        B5                   A5 
  Gtr I 
                                  ~~~ 
    Q      E   E   E  E  E   E    +H     +E  E E E 
|------------------------------|------------------| 
|-5b7--5-3-5p3---------|--------------3-2-| 
|----------------------4-4-|-(4)----(4)-x-2-2-| 
|------------------------------|--------------4-2-| 
|------------------------------|------------------| 
|------------------------------|------------------| 
| 
| Gtrs II, III 
|  H              Q.        E    +H.          E E 
|------------------------------|------------------| 
|------------------------------|------------------| 
|-----------------2---------4--|-(4)------------2-| 
|--5--------------2---------4--|-(4)------------2-| 
|--5--------------0---------2--|-(2)------------0-| 
|--3---------------------------|------------------| 


                   B5 
   +H     +E   E  E E   +E  Q  E +E   E   E   E 
|--------------------|---------------------------| 
|-(2)----(2)---------|-----3------------3-5--| 
|-(2)----(2)-----2-4-|-(4)-2--4-(4)-4----------| 
|-(2)----(2)-----2-4-|-(4)----4-(4)--------------| 
|------------(0)-----|---------------------------| 
|--------------------|---------------------------| 
| 
| +H.            E E   +H        E   E   E   E 
|--------------------|---------------------------| 
|--------------------|---------------------------| 
|-(2)--------------4-|-(4)-----------------------| 
|-(2)--------------4-|-(4)---------------0---2---| 
|-(0)--------------2-|-(2)-----------2-----------| 
|--------------------|---------------------------| 


  E5F#5    E5  Bm/DE5  Bm/D    B5                   A5 
                                      ~~~ 
     Q      E   E   E  E  S  S  E    +H     +E  E E E    H        H 
|----------------------------------|------------------|-----------------| 
|---5b7--5-3-5p3-----------|--------------3-2-|--2tr3-----------| 
|------------------------4p2-4-|-(4)----(4)-4-----|-----------------| 
|----------------------------------|------------------|----------/x\----| 
|----------------------------------|------------------|-----------------| 
|----------------------------------|------------------|-----------------| 
| 
| a  Q      E   E   E  E  E     E    +H.          E E   +W 
|----------------------------------|------------------|-----------------| 
|----------------------------------|------------------|-----------------| 
|-4S=6------4---4---4--4--------4--|-(4)------------2-|-(2)-------------| 
|-2S=4------2---0---2--0--------4--|-(4)------------2-|-(2)-------------| 
|-------------------------0-----2--|-(2)------------0-|-(0)-------------| 
|----------------------------------|------------------|-----------------| 


                  |-3--|        |--3--| 
   S S  S S  S S  S S  S  S  S  S  S  S  S S  S  S 
|------------------------------------------9-(9)-9-| 
|------------------------10----10h12p10-12---------| 
|---------9----9-11p9h11----11---------------------| 
|-11p9-11---11-------------------------------------| 
|--------------------------------------------------| 
|--------------------------------------------------| 
| 
|  PM----------------------------------------| 
|  E    E    E    E       E     E        E    E 
|--------------------------------------------------| 
|--------------------------------------------------| 
|--------------------------------------------------| 
|--------------------------------------------------| 
|--------------------------------------------------| 
|--2----2----2----2-------2-----2--------2----2----| 


   \1__________/ 
                    ~~~~~ 
   Q.         +E   +Q      Q 
|-12b14======(12)-(12)r--------| 
|------------------------------| 
|------------------------------| 
|------------------------------| 
|------------------------------| 
|--------------------------x\--| 
| 
|  E     E E   E    E   E  Q 
|------------------------------| 
|------------------------------| 
|------------------------------| 
|------------------------------| 
|------------------------------| 
|--2h====3-2h==3----2-----/x\--| 


   Out-Chorus 
    B5     G5/D E5        BmE5B5/F#  B5     G5/D A5            B5 
    Gtrs I, II 
         PM   PM                          PM               PM| 
    Q.   E Q  E E   +Q.   E E Q.     Q.   E Q.   E   +Q.   E E Q.    3x 
||----------------|----------------|---------------|-----------------|| 
||o---------------|----------------|---------------|----------------o|| 
||---------0----4-|-(4)---4-4-4----|--------0------|-----------------|| 
||--4------0--0-2-|-(2)---0-2-4----|-4------0----2-|-(2)-------4-----|| 
||o-2----2--------|----------------|-2----2------0-|-(0)-----0-2----o|| 
||----------------|----------------|---------------|-------2---------|| 


  B5     G5/D E5        BmE5B5/B5             B5 
       PM   PM 
   Q.   E Q  E E   +Q.   E E Q  E   +H..       E 
|---------------|----------------|--------------| 
|---------------|----------------|--------------| 
|--------0----4-|-(4)---4-4-4--4-|-(4)--------4-| 
|-4------0--0-2-|-(2)---0-2-4--4-|-(4)--------4-| 
|-2----2--------|--------------2-|-(2)--------2-| 
|---------------|----------------|--------------| 


             B5             B5                  B5 
  +H..       E   +H     +E  Q.     +W           Q  Q  H 
|--------------|-----------------|------------|------------*| 
|--------------|-----------------|------------|------------*| 
|-(4)--------4-|-(4)----(4)-4----|-(4)--------|-4----------*| 
|-(4)--------4-|-(4)----(4)-4----|-(4)--------|-4----------*| 
|-(2)--------2-|-(2)----(2)-2----|-(2)--------|-2----------*| 
|--------------|-----------------|------------|------------*| 



Duration Legend 
--------------- 
W - whole; H - half; Q - quarter; E - 8th; S - 16th; T - 32nd; X - 64th; a - acciaccatura 
+ - note tied to previous; . - note dotted; .. - note double dotted 
Uncapitalized letters represent notes that are staccato (1/2 duration) 
Irregular groupings are notated above the duration line 
Duration letters will always appear directly above the note/fret number it represents the 
duration for.  Duration letters with no fret number below them represent rests.  Multi- 
bar rests are notated in the form Wxn, where n is the number of bars to rest for.  Low 
melody durations appear below the staff 

Tablature Legend 
---------------- 
 h   - hammer-on 
 p   - pull-off 
 b   - bend 
 pb  - pre-bend 
 r   - bend release (if no number after the r, then release immediately) 
 /\  - slide into or out of (from/to "nowhere") 
 s   - legato slide 
 S   - shift slide 
 - natural harmonic 
n  - artificial harmonic 
n(n) - tapped harmonic 
 ~   - vibrato 
 tr  - trill 
 T   - tap 
 TP  - trem. picking 
 PM  - palm muting 
\n/  - tremolo bar dip; n = amount to dip 
 \n  - tremolo bar down 
 n/  - tremolo bar up 
/n\  - tremolo bar inverted dip 
 =   - hold bend; also acts as connecting device for hammers/pulls 
 <> - volume swell (louder/softer) 
 x   - on rhythm slash represents muted slash 
 o   - on rhythm slash represents single note slash 

Misc Legend 
----------- 
 |  - bar 
||  - double bar 
||o - repeat start 
o|| - repeat end 
*|  - double bar (ending) 
 :  - bar (freetime) 
 $  - Segno 
 &  - Coda 
Tempo markers -  = BPM(8/16=s8/s16), where s8 = swing 8ths, s16 = swing 16ths 
		  

See also:

chords Edguy - For a trace of life chords Scorpions - Time Will Call Your Name chords Scorpions - Always Somewhere chords Scorpions - Still Loving You chords Scorpions - Destin chords Scorpions - Sign Of Hope
e-chords

Other versions:

chords Accept - Too High To Get It Right
auto scroll beats size up size down change color hide chords simplify chords drawings columns
tab show chords e-chords YouTube Clip e-chords hide all tabs e-chords go to top tab

share