Above and Beyond

Little Something

Above and Beyond

chords

by  PAULANTUNES

save to print version add songbook text version e-mail correct tuner
chordsukulelecavacokeyboardtabbassdrumsharmonicaflute Guitar Pro
close

there isn't a video lesson for this song

chords

Little Something

	  		Verse: 

f#|-------4-----------|-------4-----------| 
b |---4---------4---4-|---4---------4---4-| 
F#|-------------------|-------------------| 
B |-------------------|-------------------| 
G#|-3---0---0-0---0---|-3---3---2-2---2---| 
C#|-------------------|-------------------| 

f#|-------4-----------|-------4-----------| 
b |---2---------2---2-|---4---------4---4-| 
F#|-------------------|-------------------| 
B |-------------------|-------------------| 
G#|-------------------|-------------------| 
C#|-2---2---2-2---2---|-0---0---0-0---0---| 

Bridge: 

f#|-------4-----------|-------4-----------|      
b |---4---------4---4-|---4---------6---4-| 
F#|-------------------|-------------------| 
B |-0---0---0-0---0---|-4---4---2-2---2---| 
G#|-------------------|-------------------| 
C#|-------------------|-------------------| 

f#|-------4-----------|-------4-----------|      
b |---4---------4---4-|---4---------4---4-| 
F#|-------------------|-0---0---2-2---2---| 
B |-0---0---0-0---0---|-------------------| 
G#|-------------------|-------------------| 
C#|-------------------|-------------------| 

f#|-------4-----------|-------4-----------|      
b |---4---------4---4-|---4---------6---4-| 
F#|-------------------|-0---0-------------| 
B |-0---0---0-0---0---|---------6-6---6---| 
G#|-------------------|-------------------| 
C#|-------------------|-------------------| 

1st time bridge end: 

f#|-------4-----------|-------4-----------|      
b |---4---------4---4-|---4---------4---4-| 
F#|-------------------|-------------------| 
B |-0---0---0-0---0---|-0---0---0-0---0---| 
G#|-------------------|-------------------| 
C#|-------------------|-------------------| 

2nd time bridge end: 

f#|-------4-----------|---0---4-----------|      
b |---4---------4---4-|-------------6---4-| 
F#|-------------------|-------------------| 
B |-0---0---0-0---0---|-0---0---0-0---0---| 
G#|-------------------|-------------------| 
C#|-------------------|-------------------| 

Chorus: 

f#|---4-0-5-----0-------|---4-0-5-----0-------| 
b |---------4-------4---|---------4-------4---| 
F#|---------------4---0-|---------------4---0-| 
B |---------------------|---------------------| 
G#|-----0-----3---------|-----0-----3---------| 
C#|-5-------------------|-5-------------------| 

f#|---4-0-5-----0-------|---4-0-5-----0-------| 
b |---------4-------4---|---------4-------4---| 
F#|---------------4---0-|---------------4---0-| 
B |---------------------|-4---2-----0---------| 
G#|-----0-----3---------|---------------------| 
C#|-5-------------------|---------------------| 

Verse x 1 intro 
Verse x 2 "Too many hours..." 
Bridge x 1 "Did I miss..." 
Chorus x 1 "You are my..." 
Verse x 1 inst. 
Verse x 2 "I used to fear..." 
Bridge x 1 "Did I miss..." 
Chorus x 4 "You are my..." 

Thanks for reading and good luck! 
		  

auto scroll beats size up size down change color hide chords simplify chords drawings columns
tab show chords e-chords YouTube Clip e-chords hide all tabs e-chords go to top tab

share