Violent Soho

Revolutionary

Violent Soho

cavaco

by  ALYSLIMA

save to print version add songbook text version e-mail correct tuner
chordsukulelecavacokeyboardtabbassdrumsharmonicaflute Guitar Pro
close

there isn't a video lesson for this song

chords

Revolutionary

	  		
Intro 

e|---------------------------------------------------------------------------| 
B|---------------------------------------------------------------------------| 
G|---------------------------------------------------------------------------| x3 
D|---3---6------3---6--------------------------------------------------------| 
A|--3---6-(0)--3---6-(0)-----------------------------------------------------| 
D|-3---0------3---0----------------------------------------------------------| 


Verse 

e|---------------------------------------------------------------------------| 
B|---------------------------------------------------------------------------| 
G|---------------------------------------------------------------------------| x12 
D|---3---6------3---6--------------------------------------------------------| 
A|--3---6-(0)--3---6-(0)-----------------------------------------------------| 
D|-3---0------3---0----------------------------------------------------------| 


Chorus 

e|---| 
B|---| 
G|---| 
D|-6-|  
A|-6-| 
D|-6-| 

e|---------------------------------------------------------------------------| 
B|---------------------------------------------------------------------------| 
G|---------------------------------------------------------------------------| x9 
D|-3-3-3-1-1-1-6-6-6-6-6-6---------------------------------------------------| 
A|-3-3-3-1-1-1-6-6-6-6-6-6---------------------------------------------------| 
D|-3-3-3-1-1-1-6-6-6-6-6-6---------------------------------------------------| 


Verse 

e|---------------------------------------------------------------------------| 
B|---------------------------------------------------------------------------| 
G|---------------------------------------------------------------------------| x12 
D|---3---6------3---6--------------------------------------------------------| 
A|--3---6-(0)--3---6-(0)-----------------------------------------------------| 
D|-3---0------3---0----------------------------------------------------------| 


Chorus 

e|---| 
B|---| 
G|---|  
D|-6-| 
A|-6-| 
D|-6-| 

e|---------------------------------------------------------------------------| 
B|---------------------------------------------------------------------------| 
G|---------------------------------------------------------------------------| x9 
D|-3-3-3-1-1-1-6-6-6-6-6-6---------------------------------------------------| 
A|-3-3-3-1-1-1-6-6-6-6-6-6---------------------------------------------------| 
D|-3-3-3-1-1-1-6-6-6-6-6-6---------------------------------------------------| 


Solo 

e|---------------------------------------------------------------------------| 
B|---------------------------------------------------------------------------| 
G|-5~~~~~~~~~~---------8-10~~b~~~r-13~~b~~~r---------------------------------| 
D|-7b~~~~~~~~~-6-8-10-6---------------------6~~~~~6-8-6-8-6-3-1-3-1-6-3------| 
A|---------------------------------------------------------------------------| 
D|---------------------------------------------------------------------------| 

e|---------------------------------------------------------------------------| 
B|---------------------------------------------------------------------------| 
G|---------------------------------------------------------------------------| x6 
D|-3-3-3-1-1-1-0-0-0-6-6-6-6-6-6---------------------------------------------| 
A|-3-3-3-1-1-1-0-0-0-6-6-6-6-6-6---------------------------------------------| 
D|-3-3-3-1-1-1-0-0-0-6-6-6-6-6-6---------------------------------------------| 

Outro 

e|---------------------------------------------------------------------------| 
B|---------------------------------------------------------------------------| 
G|---------------------------------------------------------------------------| x16 
D|-3-3-3-1-1-1-0-0-0-6-6-6-6-6-6---------------------------------------------| 
A|-3-3-3-1-1-1-0-0-0-6-6-6-6-6-6---------------------------------------------| 
D|-3-3-3-1-1-1-0-0-0-6-6-6-6-6-6---------------------------------------------| 


| (n) Ghost note 
| r   Release 
| b   Bend 
| ~   Vibrato  
		  

See also:

e-chords

Other versions:

auto scroll beats size up size down change color columns
tab show chords e-chords YouTube Clip e-chords hide all tabs e-chords go to top tab