Nx Zero

home > Nx Zero

Apenas um olhar Banjo

Nx Zero

Difficulty: BeginnerBeginner

by maninhatk

tuner correct add songbook print version text version save to e-mail
chordsukulelecavacokeyboardtabbassdrumsharmonicsflute Guitar Pro
chords

Apenas um olhar

  		Intro: 

apenas um olhar misterio... 

e|---------------- 
B|--5--5--5--5--5- 
G|--4--4--4--4--4- 
D|--2-----2--2--2- 
A|--0--2--4------- 
E|-----------4--4- 

quando entra a bateria: 

B|-9--7--9--7--9--7--9--7--9--7--9--7--9--7--9--7 

base: C#5 A5 B5 
e|--------------------------------------------------------------------- 
B|--------------------------------------------------------------------- 
G|-6-6--8-9-11-9--14-13--11-9--11-9--8--9------6-6--8-9-11-9--14----13- 
D|-x-x--x-x-x--x--x--x---x--x--x--x--x--x------x-x--x-x-x--x--x-----x-- 
A|-4-4--6-7-9--7--12-11--9--7--9--7--6--7------4-4--6-7-9--7--12----11- 
E|--------------------------------------------------------------------- 

base: C#5 A5 B5 
B|--5-4-2-4-5-4-2---5-4-2-4-5-4-2---5-4-2-4-5-4-2---5-4-2-4-5-4-2 
G|---4-4-4-4-4-4-4---4-4-4-4-4-4-4---4-4-4-4-4-4-4---4-4-4-4-4-4-4 

C#5                    A5                 B5 
Porque que você esta fugindo de mim com nossas fotos rasgadas? 
C#5             A5     B5 
Se for pra ser assim, será. 


B|-9-9-10---9-9--9-9-10-9-9--12-12--9--9- 
G|--9-9----9-9----9-9----9-9--9--9--9--9- 
Apenas um olhar, mistério... 
confuso de entender 
Do que me vale ser sincero se o destino me afasta de você ?! 

C#5          A5      E5             B5          
Agora é pra valer, esqueça tudo que eu disse para voce! 
C#5          A5      E5             B5 
Já não tem sido fácil...    uô uô 

2x 
e|------------------------- 
B|------------------------- 
G|--6--6--8--4------------- 
D|--x--x--x--x--4--4--6--7- 
A|--4--4--6--2--4--4--6--7- 
E|--------------2--2--4--5- 

Só o baixo: 
Apenas em um olhar espero desvendar os seus mistérios, tentar 
entender eu mesmo, tentar entender... você! 

C#5          A5      E5             B5          
Agora é pra valer, esqueça tudo que eu disse para voce! 
C#5          A5      E5             B5 
Já não tem sido fácil...    uô uô uô uôo 

* 4x 
D|-9-11-9---9-11-9---- 
A|-------11-------11-- 

* C#5        A5                    E5           B5        C#5 A5 E5 B5 
Eu odeio saber que as coisas não são como deveriam ser. 

	  

Full key step upFull key step up
Half key step upHalf key step up
Half key step downHalf key step down
Full key step downFull key step down
Search Paypal
auto scroll beats size up size down change color columns
tab show chords e-chords YouTube Clip e-chords hide all tabs e-chords go to top tab