Nofx

home > Nofx

Free Dumb Banjo

Nofx

Difficulty: nolevelnolevel

by 4nub1s

tuner correct add songbook print version text version save to e-mail
chordsukulelecavacokeyboardtabbassdrummharmonicsflute Guitar Pro
chords

Free Dumb

  		Normal-length NOFX-song. Remember the pick-slides at the beginning. 
A=Dave   B=Melvin   A&B=both 
: 
# intro #A X2 
E-------------------------| 
B-------------------------| 
G---9-999999------10-12---| 
D---9-999999-8-8-810-12---| 
A---7-777777-8-8-8-8-10---| 
E------------6-6-6--------| 
# intro #B X2 
E-------------------------| 
B-------------------------| 
G-------------------------|  > Then play A&BintroAX4. 
D---2--------8------------| 
A---2--------8------------| 
E---0--------6------------| 
: 
# bridge #A 
E---------------------------------------------------| 
B---------------------------------------------------| 
G---9---7-9-7-9-710---710---7-9---7-9-7-9-710-------| 
D---9---7-9-7-9-710---710---7-9---7-9-7-9-710-------| 
A---7---5-7-5-7-5-8---5-8---5-7---5-7-5-7-5-8-/15---| 
E---------------------------------------------------| 
# bridge #B 
E---------------------------------------------------| 
B---------------------------------------------------| 
G---9---7-9-7-9-7-------------9---7-9-7-9-7---------| 
D---9---7-9-7-9-7-------------9---7-9-7-9-7---------| 
A---7---5-7-5-7-5-8---5-8---5-7---5-7-5-7-5-8-/15---| 
E---------------------------------------------------| 
: 
Then play AintroAX2 or BintroBX2, A&BintroX4 and AbridgeA or BbridgeB. 
: 
# outro #A 
E---------------------| 
B---------------------| 
G---9-----------------| 
D---9-----------------| 
A---7-----------------| 
E---------------------| 
# outro #B   /x\=palm-mute 
E-----------/---\-----| 
B---------------------| 
G---------------------| 
D---2-------------8\--| 
A---2-------2-2-2-8\--| 
E---0-------0-0-0-6\--| 
 

	  

Search Paypal
auto scroll beats size up size down change color columns
tab show chords e-chords YouTube Clip e-chords hide all tabs e-chords go to top tab