Lanza Internacional

Mientras Duermes

Lanza Internacional

cavaco Easy easy

by  GUSTSILVA

save to print version add songbook text version e-mail correct tuner
chordsukulelecavacokeyboardtabbassdrumsharmonicaflute Guitar Pro
close

there isn't a video lesson for this song

chords

Mientras Duermes

	  		

Intro Instrumental Piano/Teclado: F--G--

A--F-Em-----Dm--F--Dm--A 


    F         G       A        Em      Dm 

D  -10-     - 9-     -11-     - 9-     -7- 

A  -12-     -10-     -12-     -11-     -8- 

F  -12-     - 9-     -11-     -11-     -9- 

C  -12-     -11-     -13-     -11-     -9- 

G  -10-     -12-     -14-     - 9-     -7- 

D  - x-     - x-     - x-     - x-     -x- 

Intro Instrumental Guitarra: Dm-C-Dm-C-----A#-C-A#-C 


RIFF Bajo 
d -------------------------------------------------------- 
A -------------------------------------------------------- 

F -------------------------------------------------------- 
C -----------------5-------------------------------------- 
G --7-7---7-7---7-----7----------------------------------- 
D ------------------------7-7---7-7---5-7/---------------- 

d -------------------------------------------------------- 
A -------------------------------------------------------- 

F -------------------------------------------------------- 
C -----------------5-------------------------------------- 
G --7-7---7-7---7-----7----------------------------------- 
D ------------------------7-7---7-7---5-7----------------- 

d -------------------------------------------------------- 
A -------------------------------------------------------- 

F -------------------------------------------------------- 

C -------------------------------------------------------- 
G --------------------3----3---5----7-7---7-7---5-7/------ 
D -7-6--5-5---5-5---5----5-------------------------------- 

d ------------------------------------------------------- 
A ------------------------------------------------------- 

F ------------------------------------------------------- 
C ----------------------------------------------5-4------ 
G ---------------3----3---5---2-2---2-2---0-2------------ 
D -5-5---5-5---5---5------------------------------------- 

Rx5 hasta "Mientras duermes..." 



Dm                 C 
Esperaré a ver la luz 

Dm           Dm-C 
Para saber realmente si eres tú 

A#     A#-C 
Oh no 

A#     A#-C 
Oh no 


D  -17/- 

A  -17/- 

F  -16/- 

C  - x - 

G  - x - 

D  - x - 


Dm         Dm - C 
Convénceme pronto verás 


Dm            Dm-C                     A#   A#-C 
El brillo de la lluvia rebotar en tus pies 


         A#   C 
En tus pies 


(Palm Mute) 
d --------------------------------- 
A --------------------------------- 

F --------------------------------- 

C --9-9---9-9--7-9---(x)-----------  x5 
G --------------------------------- 
D --------------------------------- 


/Dm  /C 
Respirar 


/Dm                 /C 
A metros de profundidad 


/A#                      /Dm 
No es lo mejor que se nos da 


C 
Flotamos en la superficie 


D  -17/- 

A  -17/- 

F  -16/- 

C  - x - 

G  - x - 

D  - x - 

(Palm Mute) 
d ---------------------------------- 
A ---------------------------------- 

F ---------------------------------- 
C --7-9-9---9-9--7-9---(x)---------- x8 
G ---------------------------------- 
D ---------------------------------- 



/Dm    /F 
Despertar 


/Dm               /C   C-B-A# 
Luego salir a caminar 


/A#                      /C 
Después de estar toda la noche 


A#                    C 
Jugando Mientras duermes... 


Bajo 
d ----------------------------------------------------- 
A ----------------------------------------------------- 

F ----------------------------------------------------- 

C -----------------------5/----------------------------   x2 
G --------------------7-------------------------------- 
D -5-5---5-5---5-5-5----------------------------------- 

d ----------------------------------------------------- 
A ----------------------------------------------------- 

F ----------------------------------------------------- 

C -----------------------------------------------------   x2 
G --------------------5---7/--------------------------- 
D -0-0---0-0---0-0-0----------------------------------- 

d ----------------------------------------------------- 
A ----------------------------------------------------- 

F ----------------------------------------------------- 

C -----------------------5/----------------------------   x2 
G --------------------7-------------------------------- 
D -5-5---5-5---5-5-5----------------------------------- 

d ----------------------------------------------------- 
A ----------------------------------------------------- 

F ----------------------------------------------------- 

C ----------------------------------------------------- 
G --------------------5---7---------------------------- 
D -0-0---0-0---0-0-0----------------------------------- 

El bajo se detiene en "Siempre es igual en nuestra casa" 



D          Cm-D     D     Cm-D    A      G-A 
Algunas obsesiones no se pueden olvidar jamás 


D            Cm-D          A         G-A 
Algunas injusticias no se quieren reparar 


     A                          /Dm   /C 
Siempre es igual en nuestra casa 


               /Dm  /C  C-B-A#  C x2  C 
En nuestra casa... 

Se reanuda en el segundo "En nuestra casa..." (último verso) 

RIFF Bajo 
d -------------------------------------------------------- 
A -------------------------------------------------------- 

F -------------------------------------------------------- 
C -----------------5-------------------------------------- 
G --7-7---7-7---7-----7----------------------------------- 
D ------------------------7-7---7-7---5-7/---------------- 

d -------------------------------------------------------- 
A -------------------------------------------------------- 

F -------------------------------------------------------- 
C -----------------5-------------------------------------- 
G --7-7---7-7---7-----7----------------------------------- 
D ------------------------7-7---7-7---5-7----------------- 

d -------------------------------------------------------- 
A -------------------------------------------------------- 

F -------------------------------------------------------- 

C -------------------------------------------------------- 
G --------------------3----3---5----7-7---7-7---5-7/------ 
D -7-6--5-5---5-5---5----5-------------------------------- 

d ------------------------------------------------------- 
A ------------------------------------------------------- 

F ------------------------------------------------------- 
C ----------------------------------------------5-4------ 
G ---------------3----3---5---2-2---2-2---0-2------------ 
D -5-5---5-5---5---5------------------------------------- 

Rx5 hasta "Hay miles de palabras que no vale la pena decir" 


(Palm Mute) 
d ---------------------------------- 
A ---------------------------------- 

F ---------------------------------- 
C --7-9-9---9-9--7-9---(x)---------- x8 
G ---------------------------------- 
D ---------------------------------- 

las (x) también las pueden tocar como una repetición de la última nota 

d ---------------------------------- 
A ---------------------------------- 

F --9-9---9-9--7-9---(x)------------ 

C ----------------------------------    variación 
G ---------------------------------- 
D ---------------------------------- 



/Dm  /C 
Respirar 


/Dm             /C.    C-B-A# 
A metros de profundidad 


                     /Dm 
No es lo mejor que se nos da 


A#                  C 
Flotamos en la superficie 



Dm          Dm-C 
Convénceme pronto verás 


Dm           Dm-C                C-B-A#    A#-Dm 
El brillo de la lluvia rebotar en tus pies 


    A#    C 
Tus pies 


/F           F-C 
Sacude bien el polvo que quedó 


/F           F-C           Dm      /A#-C/  x2 
En el rincón de nuestra habitación ayer 

*en estos dos versos se juega mucho con los slides 
("Sacude bien... habitación ayer") 


Bajo 
d ------------------------------------------------ 
A ------------------------------------------------ 

F ------------------------------------------------ 

C -----------------------5/-----------------------   x2 
G --------------------7--------------------------- 
D -5-5---5-5---5-5-5------------------------------ 

d ------------------------------------------------ 
A ------------------------------------------------ 

F ------------------------------------------------ 

C ------------------------------------------------ 
G --------------------5---7----------------------- 
D -0-0---0-0---0-0-0------------------------------ 

"que no nos conviene repetir" 
d ------------------------------------------------ 
A ------------------------------------------------ 

F ------------------------------------------------ 

C ------------------------------------------------ 
G ----------5h7-----(5)--------------------------- 
D -0-0h5h7------(7)------7--5--------------------- 

"Algunas obsesiones"... 
d ----------------------------------------------------- 
A ----------------------------------------------------- 

F ----------------------------------------------------- 

C -----------------------5/----------------------------   x2 
G --------------------7-------------------------------- 
D -5-5---5-5---5-5-5----------------------------------- 

d ----------------------------------------------------- 
A ----------------------------------------------------- 

F ----------------------------------------------------- 

C -----------------------------------------------------   x2 
G --------------------5---7/--------------------------- 
D -0-0---0-0---0-0-0----------------------------------- 

El bajo se detiene en "Siempre es igual en nuestra casa" 
*La siguiente parte, lo que está entre paréntesis lo hace la 
segunda guitarra. 



A#           A# Cm/D  A# Cm/D    A# Dm    A# Dm 
Hay miles de palabras que no vale la pena decir 


A          A Cm/D   A Cm/D  A Dm    A# Dm 
Alguna de ellas que no nos conviene repetir 


A#(/Dm)     A# Dm  A# Dm   A# Dm    A# Dm 
Algunas obsesiones no se pueden olvidar jamás 


A#(/Dm)     A# Dm  A# Dm  A# Dm    A# 
Hoy miles de injusticias no se quieren reparar 


 Dm          Dm                 /Dm/ /C 
Siempre es igual en nuestra casa 


              /Dm/ /C  C-B-A# C /Dm/ C-A#  C 
En nuestra casa... 


RIFF Bajo 
d -------------------------------------------------------- 
A -------------------------------------------------------- 

F -------------------------------------------------------- 
C -----------------5-------------------------------------- 
G --7-7---7-7---7-----7----------------------------------- 
D ------------------------7-7---7-7---5-7/---------------- 

d -------------------------------------------------------- 
A -------------------------------------------------------- 

F -------------------------------------------------------- 
C -----------------5-------------------------------------- 
G --7-7---7-7---7-----7----------------------------------- 
D ------------------------7-7---7-7---5-7----------------- 

d -------------------------------------------------------- 
A -------------------------------------------------------- 

F -------------------------------------------------------- 

C -------------------------------------------------------- 
G --------------------3----3---5----7-7---7-7---5-7/------ 
D -7-6--5-5---5-5---5----5-------------------------------- 

d ------------------------------------------------------- 
A ------------------------------------------------------- 

F ------------------------------------------------------- 
C ----------------------------------------------5-4------ 
G ---------------3----3---5---2-2---2-2---0-2------------ 
D -5-5---5-5---5---5------------------------------------- 

----------------------------------------------------------------- 
*El Riff del Bajo en realidad es un loop, pero para aprovechar el tono 
bajo de la guitarra, decidí poner la última parte entre el La y Sol de 
la 5ta cuerda, que son los mismos de que se tocan en la 6ta al inicio ;) 

Acordes: 

    F         G        A        A#     Dm 

D  -10-     - 5-     - 7-     - 8-     -7- 

A  -12-     - 5-     - 7-     - 8-     -8- 

F  -12-     - 6-     - 8-     - 9-     -9- 

C  -12-     - 7-     - 9-     -10-     -9- 

G  -10-     - 7-     - 9-     -10-     -7- 

D  - x-     - 5-     - 7-     - 8-     -x- 


     C       B       A#      D       Cm 

D  - 5-    - 4-    - 3-     -12-    -10- 

A  - 7-    - 6-    - 5-     -12-    -10- 

F  - 7-    - 6-    - 5-     -13-    -10- 

C  - 7-    - 6-    - 5-     -14-    -12- 

G  - 5-    - 4-    - 3-     -14-    -12- 

D  - x-    - x-    - x-     -12-    -10- 

------------------------------------------------------------------- 
 
		  

Full key step upFull key step up
Half key step upHalf key step up
Half key step downHalf key step down
Full key step downFull key step down

See also:

e-chords

Other versions:

auto scroll beats size up size down change color columns
tab show chords e-chords YouTube Clip e-chords hide all tabs e-chords go to top tab

share