Zucchero

Mama

Zucchero

bass

by  HEBEALMEIDA

save to print version add songbook text version e-mail correct tuner
chordsukulelecavacokeyboardtabbassdrumsharmonicaflute Guitar Pro
close

there isn't a video lesson for this song

chords

Mama

Key:  B More
Mama Key F#F#
Mama Key GG
Mama Key G#G#
Mama Key AA(one step down)
Mama Key A#A#(half step down)
Mama Key BB(original key)
Mama Key CC(half step up)
Mama Key C#C#(one step up)
Mama Key DD
Mama Key D#D#
Mama Key EE
Mama Key FF
	  		
Bass enters 
   B               A6               Eadd9           D6   
G||--------------------------------|--------------------------------| 
D||--------------------------------|--------------------------------| 
A||--------------------------------|--------------------------------| 
E||7-----------7---5-----------5---|0-----------0-------------------| 
B||--------------------------------|----------------3-----------3---|   
   ^       ^       ^       ^        ^       ^       ^       ^            

G||--------------------------------|--------------------------------| 
D||--------------------------------|--------------------------------| 
A||--------------------------------|--------------------------------|   
E||7-----------7---5-----------5---|0-----------0---------------5-6-| 
B||--------------------------------|----------------3---------------| 
   ^       ^       ^       ^        ^       ^       ^       ^            

G||--------------------------------|--------------------------------| 
D||--------------------------------|--------------------------------| 
A||--------------------------------|--------------------------------|   
E||7-----------7---5-----------5---|0-----------0---------------5-6-| 
B||--------------------------------|----------------3---------------| 
   ^       ^       ^       ^        ^       ^       ^       ^            

G||--------------------------------|--------------------------------| 
D||--------------------------------|--------------------------------| 
A||--------------------------------|--------------------------------|   
E||7-----------7---5-----------5---|0-----------0---------------5-6-| 
B||--------------------------------|----------------3---------------| 
   ^       ^       ^       ^        ^       ^       ^       ^            

G||--------------------------------|--------------------------------| 
D||--------------------------------|--------------------------------| 
A||--------------------------------|--------------------------------| 
E||7-----------------------7\------|3-----------------------3/------| 
B||--------------------------------|--------------------------------| 
   ^       ^       ^       ^        ^       ^       ^       ^            

G||--------------------------------|--------------------------------| 
D||--------------------------------|--------------------------------| 
A||------------5-6-7-----------7---|--------------------------------| 
E||7-----------------------------7-|----------------------------5-6-| 
B||--------------------------------|5-------------------------------| 
   ^       ^       ^       ^        ^       ^       ^       ^         

"Nothing is shaking..." 
G||--------------------------------|--------------------------------| 
D||--------------------------------|--------------------------------| 
A||--------------------------------|--------------------------------|  
E||7-----------7---5-----------5---|0-----------0---------------5-6-| 
B||--------------------------------|----------------3---------------| 
   ^       ^       ^       ^        ^       ^       ^       ^            

G||--------------------------------|--------------------------------| 
D||--------------------------------|--------------------------------| 
A||--------------------------------|7-------------7-5---------------|  
E||7-----------7---5-----------5---|------------7---------------5-6-| 
B||--------------------------------|--------------------------------| 
   ^       ^       ^       ^        ^       ^       ^       ^            

G||--------------------------------|--------------------------------| 
D||--------------------------------|--------------------------------| 
A||--------------------------------|--------------------------------| 
E||7-------------7-5-----------5---|0-----------0-------------------| 
B||------------7-------------------|----------------3---------------| 
   ^       ^       ^       ^        ^       ^       ^       ^            

G||--------------------------------|--------------------------------| 
D||--------------------------------|--------------------------------| 
A||--------------------------------|7-------------7-5---------------|  
E||7-----------7---5-----------5---|------------7---------------5-6-| 
B||--------------------------------|--------------------------------| 
   ^       ^       ^       ^        ^       ^       ^       ^            

"I love you because I need to..." 
G||--------------------------------|--------------------------------| 
D||--------------------------------|--------------------------------| 
A||--------------------------------|--------------------------------| 
E||7-----------------------7\------|3-------------------------------| 
B||--------------------------------|--------------------------------| 
   ^       ^       ^       ^        ^       ^       ^       ^            

G||--------------------------------|--------------------------------| 
D||--------------------------------|--------------------------------| 
A||----------------------------5-6-|7---------------7---------------| 
E||7-------------------------------|------------------7---------5-6-| 
B||--------------------------------|--------------------8-5-5-8-----| 
   ^       ^       ^       ^        ^       ^       ^       ^       

"Mama..." 
G||--------------------------------|--------------------------------| 
D||--------------------------------|--------------------------------| 
A||----------------------------5-6-|7-----------7---5---------------|  
E||7-----------7---5---------------|----------------------------5-6-| 
B||--------------------------------|--------------------------------| 
   ^       ^       ^       ^        ^       ^       ^       ^          

G||--------------------------------|--------------------------------| 
D||--------------------------------|--------------------------------| 
A||----------------------------5-6-|7-------------7-5---------------|  
E||7-----------7---5---------------|------------7---------------5-6-| 
B||--------------------------------|--------------------------------| 
   ^       ^       ^       ^        ^       ^       ^       ^          

G||--------------------------------|--------------------------------| 
D||--------------------------------|--------------------------------| 
A||----------------------------5-6-|7-------------7-5---------------|  
E||7-----------7---5---------------|------------7---------------5-6-| 
B||--------------------------------|--------------------------------| 
   ^       ^       ^       ^        ^       ^       ^       ^          

G||--------------------------------|--------------------------------| 
D||--------------------------------|--------------------------------| 
A||----------------------------5-6-|7-----------7---5---------------|  
E||7-----------7---5---------------|----------------------------5-6-| 
B||--------------------------------|--------------------------------| 
   ^       ^       ^       ^        ^       ^       ^       ^          

************************************ 
| \    Slide down 
| /    Slide up 
************************************ 
		  

Full key step upFull key step up
Half key step upHalf key step up
Half key step downHalf key step down
Full key step downFull key step down
auto scroll beats size up size down change color hide chords drawings
tab show chords e-chords YouTube Clip e-chords hide all tabs e-chords go to top tab

share