Yellow Days

A Little While

Yellow Days

bass

by  LUCICAMARGO

save to print version add songbook text version e-mail correct tuner
chordsukulelecavacokeyboardtabbassdrumsharmonicaflute Guitar Pro
close

there isn't a video lesson for this song

chords

A Little While

	  		Intro/Verse 

G|---------------------------------------------------------------------------| \ 
D|----------------------4-6---4---------8-6---4/6-----------4-6--4-6-4-------|  x2 
A|---------4/6-4/6-------------4h6----6-----------4/6------------------6-----| / 
E|4--4-6-4---------6--6------------4------------------6--6-------------------| 

G|---------------------------------------------------------------------------| \ 
D|-----------6----------8-6--------------------------------------------------|  x1 
A|----------6---4/6----------------------------------------------------------| / 
E|4--4-6-4---------6-6-------------------------------------------------------| 


Chorus 

G|----------6-----------------------------------------------------------------| 
D|---------8-8-6---6-8-------------------6------6-4---------------8-----------| 
A|6-6-8-6-----------8-------6-6/8\------------------------4-6/8--8-8----------| 
E|----------------------6--6-6------4------4--4-----6--6-6--------------------| 

G|----------6-----------------------------------------------------------------| 
D|---------8-8-6---6-8-------------------------6-4----------------------------| 
A|6-6-8-6-----------8----------6/8\-------------------------------------------| 
E|------------------------6---------4--4-6-4--4----4--------------------------| 

Verse 

G|---------------------------------------------------------------------------| \ 
D|----------------------4-6---4---------8-6---4/6-----------4-6--4-6-4-------|  x2 
A|---------4/6-4/6-------------4h6----6-----------4/6------------------6-----| / 
E|4--4-6-4---------6--6------------4------------------6--6-------------------| 

Chorus 
G|----------6-----------------------------------------------------------------| 
D|---------8-8-6---6-8-------------------6------6-4---------------8-----------| 
A|6-6-8-6-----------8-------6-6/8\------------------------4-6/8--8-8----------| 
E|----------------------6--6-6------4------4--4-----6--6-6--------------------| 

G|----------6-----------------------------------------------------------------| 
D|---------8-8-6---6-8-------------------------6-4----------------------------| 
A|6-6-8-6-----------8----------6/8\-------------------------------------------| 
E|------------------------6---------4--4-6-4--4----4--------------------------| 

G|----------------------------------------------------------------------------| 
D|-----------------------6/8------------4-6-4-3-------------------------------| 
A|-----------6-8-7-----------6/8----------------4-6-6-4--4--------------------| 
E|4-----6------------------------6----------------------6-4-------------------| 


Pre-Chorus 

G|--------------| 
D|-4-6-4-3------| 
A|6-------------| 
E|--------------| 

Chorus 
G|----------6------------------------------------------------------------------| 
D|---------8-8-6---6-8-------------------6------6-4---------------8------------| 
A|6-6-8-6-----------8-------6-6/8\------------------------4-6/8--8-8-----------| 
E|----------------------6--6-6------4------4--4-----6--6-6---------------------| 

G|----------6------------------------------------------------------------------| 
D|---------8-8-6---6-8-------------------------6-4-----------------------------| 
A|6-6-8-6-----------8----------6/8\--------------------------------------------| 
E|------------------------6---------4--4-6-4--4----4---------------------------| 


Outro 

G|---------------------------------------------------------------------------| \ 
D|----------------------4-6---4---------8-6---4/6-----------4-6--4-6-4-------|  x2 (x3 with fade out) 
A|---------4/6-4/6-------------4h6----6-----------4/6------------------6-----| / 
E|4--4-6-4---------6--6------------4------------------6--6-------------------| 


************************************ 

| /   Slide up 
| \   Slide down 

************************************ 
		  

See also:

bass Deep Purple - Smoke On The Water (ver. 3) bass Deep Purple - Ted The Mechanic bass Deep Purple - Speed King bass Deep Purple - Burn bass Deep Purple - Into The Fire bass Deep Purple - Strange kind of woman
e-chords

Other versions:

bass Yellow Days - A Little While
auto scroll beats size up size down change color hide chords drawings
tab show chords e-chords YouTube Clip e-chords hide all tabs e-chords go to top tab

share with facebook