Xutos e Pontapés

home > Xutos e Pontapés

Dunas Bass Tab

Xutos e Pontapés

Difficulty: AdvancedAdvanced

by suakenga

tuner correct add songbook print version text version save to e-mail
chordsukulelecavacokeyboardtabbassdrumsharmonicsflute Guitar Pro
chords

Dunas

	  é mais ou menos isto 

G-----------0--0-0-2-4----------------------------- 
D------0--0------------2--2------2--2-4-2-0-------- 
A---------------------------2--2------------3--3--- 
E-3--3-------------------------------------------3- 

G------------------------------------------- 
D----------------0--0------0--0-2-0--------- 
A---3--2-3-2-3-4------0--0----------2-0----- 
E-3-------------------------------------3--- 

Refrão 

G------------------------------------------- 
D------4-5-4-0-2--0-4-5-4-0------4-5-4-0-2-- 
A---------------------------3--3------------ 
E-3--3-------------------------------------- 

G--------------- 
D-0-2-0--------- 
A-------2-0----- 
E-----------3--- 

e volta ao princípio 
é melhor ouvirem a música para perceberem o ritmo do baixo. 

suakenga 

	  

there isn't a video lesson for this song

request
Search
auto scroll beats size up size down change color hide chords drawings
tab show chords e-chords YouTube Clip e-chords hide all tabs e-chords go to top tab