Wilki

Ba?ka

Wilki

bass

by  BRUNBLAZKOWSKI

save to print version add songbook text version e-mail correct tuner
chordsukulelecavacokeyboardtabbassdrumsharmonicaflute Guitar Pro
close

there isn't a video lesson for this song

chords

Ba?ka

	  		
Intro 
  1     2     3    4      1     2     3    4      1     2     3    4      1     2     3    4       
G|-----------------------|-----------------------|-----------------------|-----------------------| 
D|-----------------------|-----------------------|-----------------------|-----------------------| 
A|-----------------------|2h3p2h3p2h3p2-0--------|-----------------------|2h3p2h3p2h3p2-0--------| 
E|3----3--3h5---------5--|----------------3---3-3|3----3--3h5---------5--|----------------3---3-3| 

verse 1 
  1    2    3    4    1    2    3    4    1    2    3    4    1    2    3    4   
G|-------------------|-------------------|-------------------|-------------------| 
D|-------------------|-------------------|-------------------|-------------------| 
A|-------------------|2h3----3-----------|-------------------|2h3----3-----------| 
E|3-----3-3h5------5-|---------3-3----3-0|3-----3-3h5------5-|---------3-3--3-3-0|  

  1    2    3    4    1    2    3    4   1    2    3    4    1    2    3    4   
G|-------------------|-------------------|-------------------|-------------------| 
D|-------------------|-------------------|-------------------|-------------------| 
A|-------------------|2h3----3-----------|-------------------|2h3----3-----------| 
E|3-----3-3h5------5-|---------3-3--3-3-x|3-----3-3h5------5-|---------3-3--3-3-0|  

Chorus 
  1    2    3    4       1     2    3    4      1    2     3    4      1    2     3    4   
G|----------------------|----------------------|----------------------|----------------------| 
D|----------------------|----------------------|----------------------|----------------------| 
A|3----3----------------|-----------7---7-7-5--|3----3----------------|----------------------| 
E|----------3----3h5p3-7|5----5\3-5------------|----------3-----3-----|5---5------0--0--0-0-0| 

Interlude 
  1     2     3    4      1     2     3    4      1     2     3    4      1     2     3    4       
G|-----------------------|-----------------------|-----------------------|-----------------------| 
D|-----------------------|-----------------------|-----------------------|-----------------------| 
A|-----------------------|2h3p2h3p2h3p2-0--------|-----------------------|2h3p2h3p2h3p2-0--------| 
E|3----3--3h5---------5--|----------------3---3-3|3----3--3h5---------5--|---------------3--3-3-0| 

verse 2 
  1    2    3    4    1    2    3    4    1    2    3    4    1    2    3    4   
G|-------------------|-------------------|-------------------|-------------------| 
D|-------------------|-------------------|-------------------|-------------------| 
A|-------------------|2h3----3-----------|-------------------|2h3----3-----------| 
E|3-----3-3h5------5-|---------3-3----3-0|3-----3-3h5------5-|---------3-3--3-3-0|  

  1    2    3    4    1    2    3    4   1    2    3    4    1    2    3    4   
G|-------------------|-------------------|-------------------|-------------------| 
D|-------------------|-------------------|-------------------|-------------------| 
A|-------------------|2h3----3-----------|-------------------|2h3----3-----------| 
E|3-----3-3h5------5-|---------3-3--3-3-x|3-----3-3h5------5-|---------3-/13-13\-|  

Chorus 
  1    2    3    4       1     2    3    4      1    2     3    4      1    2     3    4   
G|----------------------|----------------------|----------------------|----------------------| 
D|----------------------|----------------------|----------------------|----------------------| 
A|3----3----------------|-----------7---7-7-5--|3----3----------------|----------------------| 
E|----------3----3h5p3-7|5----5\3-5------------|----------3-----3-----|5---5------0--0--0-0-0| 

  1    2    3    4       1     2    3    4      1    2    3    4       1    2     3    4   
G|----------------------|----------------------|----------------------|----------------------| 
D|----------------------|----------------------|----------------------|----------------------| 
A|3----3----------------|-----------7---7-7-5--|3----3----------------|----------------------| 
E|----------3----3--0--7|5----5\3-5------------|----------3----3--0--7|5----5\3-5--0-0--0-0-0| 

Interlude 
  1     2     3    4      1     2     3    4      1     2     3    4      1      2      3      4       
G|-----------------------|-----------------------|-----------------------|----------------------------| 
D|-----------------------|-----------------------|-----------------------|----------------------------| 
A|-----------------------|2h3p2h3p2h3p2-0--------|-----------------------|2h3p2h3p2h3p2-0-------------| 
E|3----3--3h5---------5--|----------------3---3-3|3----3--3h5---------5--|---------------3-/13-13-13-3| 


Interlude 
  1     2     3    4      1     2     3    4      1     2     3    4      1     2     3    4       
G|-----------------------|-----------------------|-----------------------|-----------------------| 
D|-----------------------|-----------------------|-----------------------|-----------------------| 
A|-----------------------|2h3p2h3p2h3p2-0--------|-----------------------|2h3p2h3p2h3p2-0--------| 
E|3----3--3h5---------5--|----------------3---3-3|3----3--3h5---------5--|---------------3-------| 

************************************ 

| h  Hammer-on 
| p  Pull-off 
| x  Dead note 
| \  Slide down 
| /  Slide up 

************************************ 
		  

See also:

bass Wilki - Ba?ka bass Wilki - Na Zawsze I Na Wieczno??
e-chords

Other versions:

bass Wilki - Ba?ka
auto scroll beats size up size down change color hide chords drawings
tab show chords e-chords YouTube Clip e-chords hide all tabs e-chords go to top tab

share