Weezer

home > Weezer

I'm A Believer Bass Tab

Weezer

Difficulty: nolevelnolevel

by jov%2Dcorrea

tuner correct add songbook print version text version save to e-mail
chordsukulelecavacokeyboardtabbassdrumsharmonicsflute Guitar Pro
chords

I'm A Believer

  		
Intro: (NO BASS) 

verse 1:                                 (Play This Bit x2) 
G|------------------------------------------------| 
D|-------------5--5--5--5-------------------------| 
A|-3--3--3--3--------------3--3--3--3--3--3--3--3-| 
E|------------------------------------------------| 

Pre-Chorus 1: 
G|-----------------------------------------------------------------| 
D|-3--3--3--3---------2-3--3--3--3---------2-3--3--3--3------------| 
A|------------3--3--3--------------3--3--3--------------3--3--3--3-| 
E|-----------------------------------------------------------------| 

               (Break) 
G|---------------| 
D|-5--5--5--5--5-| 
A|---------------| 
E|---------------| 

Chorus:       .              .             .               . 
G|------------------------------------------------------------------| 
D|------------------------------------------------------------------| 
A|------8--8-------------8--8-------------8--8-------------8--8-----| 
E|-8--8------8\3----8--8------8\3----8--8------8\3----8--8------8\3-| 

  .   .   .   .   . 
G|---------------------------| 
D|---------------------------| 
A|-3-----------3-----1-------| 
E|-------1-----------------3-| 

verse 2:                                 (Play This Bit x2) 
G|------------------------------------------------| 
D|-------------5--5--5--5-------------------------| 
A|-3--3--3--3--------------3--3--3--3--3--3--3--3-| 
E|------------------------------------------------| 

Pre-Chorus 1: 
G|-----------------------------------------------------------------| 
D|-3--3--3--3---------2-3--3--3--3---------2-3--3--3--3------------| 
A|------------3--3--3--------------3--3--3--------------3--3--3--3-| 
E|-----------------------------------------------------------------| 

               (Break) 
G|---------------| 
D|-5--5--5--5--5-| 
A|---------------| 
E|---------------| 

Chorus:       .              .             .               . 
G|------------------------------------------------------------------| 
D|------------------------------------------------------------------| 
A|------8--8-------------8--8-------------8--8-------------8--8-----| 
E|-8--8------8\3----8--8------8\3----8--8------8\3----8--8------8\3-| 

  .   .   .   .   . 
G|---------------------------| 
D|---------------------------| 
A|-3-----------3-----1-------| 
E|-------1-----------------3-| 

Interlude: 
G|------------------------------------------| 
D|------------------------------------------| 
A|-3--3----3------------3--3------3--3------| 
E|-----------3--3--3--3------3--3------3--3-| 

G|------------------------------------------| 
D|------------------------------------------| 
A|-3--3----3------------3--3------3--2--0---| 
E|-----------3--3--3--3------3--3---------3-| 

Pre-Chorus 2: 
G|---------------------------------------------------------------------| 
D|-3--3--3--3---------5---3--3--3--3---------5---3--3--3--3------------| 
A|------------3--3--3----------------3--3--3----------------3--3--3--3-| 
E|---------------------------------------------------------------------| 

              (Break) 
G|---------------| 
D|---------------| 
A|---------------| 
E|-3--3--3--3--3-| 

Chorus 2:     .              .             .               . 
G|------------------------------------------------------------------| 
D|------------------------------------------------------------------| 
A|------8--8-------------8--8-------------8--8-------------8--8-----| 
E|-8--8------8\3----8--8------8\3----8--8------8\3----8--8------8\3-| 

  .   .   .   .    (Break) 
G|-----------------------------------------------------------------------| 
D|-------------------------------------5-5-5-5-5-5-5-5---5-5-5-5-5-5-5-5-| 
A|-3-----------3-----1---------------------------------------------------| 
E|-------1-----------------3---------------------------------------------| 

Chorus 3:     .              .             .               . 
G|------------------------------------------------------------------| 
D|------------------------------------------------------------------| 
A|------8--8-------------8--8-------------8--8-------------8--8-----| 
E|-8--8------8\3----8--8------8\3----8--8------8\3----8--8------8\3-| 

              .              .             .               . 
G|------------------------------------------------------------------| 
D|------------------------------------------------------------------| 
A|------8--8-------------8--8-------------8--8-------------8--8-----| 
E|-8--8------8\3----8--8------8\3----8--8------8\3----8--8------8\3-| 

Outro: 
G|-----------------------------------------------------------------------| 
D|------3--3------3--3------3--3------3--3------3--3------3--3------3--3-| 
A|-3--3------3--3------3--3------3--3------3--3------3--3------3--3------| 
E|-----------------------------------------------------------------------| 

              (END) 
G|-------------| 
D|------3--3---| 
A|-3--3------3-| 
E|-------------| 

Symbol . Are Pause Dots 
	  

Search Paypal
auto scroll beats size up size down change color hide chords drawings
tab show chords e-chords YouTube Clip e-chords hide all tabs e-chords go to top tab