Weezer

home > Weezer

Dope Nose Bass Tab

Weezer

Difficulty: nolevelnolevel

by Seitoshi

tuner correct add songbook print version text version save to e-mail
chordsukulelecavacokeyboardtabbassdrummharmonicsflute Guitar Pro
chords

Dope Nose

  		e-mail:[email protected] 

tuning:(low to high) Eb, Ab, Db, Gb 
symbols: / slide up 


Intro: 
Gb--------------------------------------------------------------------- 
Db--------------------------------------------------------------------- 
Ab----------7-------7-------7------------------------------------------ 
Eb-10/7-7-7---7-7-7---7-7-7-------------------------------------------- 



Verse: x2 (debt on my head wasting time on my own...) 
Gb--------------------------------------------------------------------- 
Db--------------------------------------------------------------------- 
Ab-------7-------7-------5-------5------------------------------------- 
Eb-7-7-7---7-7-7---5-5-5---5-5-5--------------------------------------- 


Chorus: quietly x3 (for the times that you wanna go and bust rhymes...) 
Gb--------------------------------------------------------------------- 
Db--------------------------------------------------------------------- 
Ab--------------------------------------------------------------------- 
Eb-5-5-5-5-5-5-5-5-7-7-7-7-7-7-7-7------------------------------------- 


then play 
Gb--------------------------------------------------------------------- 
Db--------------------------------------------------------------------- 
Ab-------7--------7-------7--------7----------------------------------- 
Eb-7-7-7----7-7-7---7-7-7----7-7-7------------------------------------- 



then play (cheese smells so good on a butndt piece of lamb...) 
Gb-------------------------------------------------------------------- 
Db-------------------------------------------------------------------- 
Ab-------7-------7-------5--------------------------------------------- 
Eb-7-7-7---7-7-7---5-5-5---5-5-5-5-5-5-5-5-7-7-7-7-7-7-7-7-------------
	  

Full key step upFull key step up
Half key step upHalf key step up
Half key step downHalf key step down
Full key step downFull key step down
Search Paypal
auto scroll beats size up size down change color hide chords drawings
tab show chords e-chords YouTube Clip e-chords hide all tabs e-chords go to top tab