Weezer

home > Weezer

Buddy Holly Bass Tab

Weezer

Difficulty: nolevelnolevel

by Seitoshi

tuner correct add songbook print version text version save to e-mail
chordsukulelecavacokeyboardtabbassdrummharmonicsflute Guitar Pro
chords

Buddy Holly

  		E-mail:[email protected] 

Tune down 1/2 step and drop D 

/ = slide to this fret 
x = cut note off 

Verse 
Ab----------4-----------4-----------4-------------- 
Db-4--4--4-----4--4--4-----4--4--4-----4--4--6--6-- 

Ab----------7-----------7-----------7-----------7-- 
Db-7--7--7-----7--7--7-----7--7--7-----7--7--7----- 

last time before first Chorus 
Ab----------4-----------4-----------4-------------- 
Db-4--4--4-----4--4--4-----4--4--4-----4--4--6--6-- 

Ab----------7-----------7--------------------4--4-- 
Db-7--7--7-----7--7--7-----7--7--7--7--9--9-------- 

Chorus 
"Ooh ooh, and you know I'm yours..." 
Ab-5--5--5--5--5--5--5--5--4--4--4----------------- 
Db----------------------------------4--4--4--4--4-- play  twice 

"And that's for all-ll time" 
Ab-5--5--5--5--5--5--5--5/12--12--12--12--12--12--12--12-- 
Db-------------------------------------------------------- 

last time (longer, at end of guitar solo) 
Ab-5--5--5--5-- six times 
Db------------- 

"Oooh-weee-oooh" 
Ab-0--0--0--0--0--0--0--0-------------------------- 
Db-------------------------0--0--0--0--2--2--2--2-- play twice 

Ab----------4--------------------------0--0--0--0-- 
Db-4--4--4-----4--4--4--4--0--0--2--2-------------- 

"I don't care 'bout that" 
Ab-0--0--5--5--7--7--7--7--0--0--0------0-0-0--0--0-- 
Db----------------------------------2-2-------------- 

Bridge 
Ab-0--0--0---------------------0--2--4--2--0----- 
Db----------2--4--2--4-x-4--4-----------------4-- 

ending (fourth "I don't care 'bout that") 
Ab-0--0--5--5--7--7--7--7--0--0--0-0-------------- 
Db-----------------------------------2--4--2--4-x- 


	  

Full key step upFull key step up
Half key step upHalf key step up
Half key step downHalf key step down
Full key step downFull key step down
Search Paypal
auto scroll beats size up size down change color hide chords drawings
tab show chords e-chords YouTube Clip e-chords hide all tabs e-chords go to top tab