Wavves

Exercise

Wavves

bass

by  MARCNAGEL

save to print version add songbook text version e-mail correct tuner
chordsukulelecavacokeyboardtabbassdrumsharmonicaflute Guitar Pro
close

there isn't a video lesson for this song

chords

Exercise

	  		
Verse 

G|--------------------------|-------------------------------| 
D|--------------------------|-------------------------------| 
A|--------------------------|-------------------------------| 
E|-7-7--7-7-7--7-7-7--7-7-7-|-7-5-5--5-3-3--3-5-5--5-3-3--3-| 

G|----------------------------|-------------------------------| 
D|----------------------------|-------------------------------| 
A|----------------------------|-------------------------------| 
E|-7-7-7--7-7-7--7-7-7--7-7-7-|-7-5-5--5-3-3--3-5-5--5-3-3--3-| 

G|----------------------------|-------------------------------| 
D|----------------------------|-------------------------------| 
A|----------------------------|-------------------------------| 
E|-7-7-7--7-7-7--7-7-7--7-7-7-|-7-5-5--5-3-3--3-5-5--5-3-3--3-| 

G|----------------------------|-------------------------------| 
D|----------------------------|-------------------------------| 
A|----------------------------|-------------------------------| 
E|-7-7-7--7-7-7--7-7-7--7-7-7-|-7-5-5--5-3-3--3-5-5--5-3-3--3-| 

Chorus 

G|-------------------------|------------------------| 
D|-------------------------|------------------------| 
A|-------------7--7--7--7--|------------------------| 
E|-3--3--3--3--------------|-5-5-5-5-5-5-5-5-5-5-5--| 

G|-------------------------|------------------------| 
D|-------------------------|------------------------| 
A|-------------7--7--7--7--|------------------------| 
E|-3--3--3--3--------------|-5-5-5-5-5-5-5-5-5-5-5--| 

G|-------------------------|------------------------| 
D|-------------------------|------------------------| 
A|-------------7--7--7--7--|------------------------| 
E|-3--3--3--3--------------|-5-5-5-5-5-5-5-5-5-5-5--| 

G|-------------------------| 
D|-------------------------| 
A|-------------7-----------| 
E|-3--3--3--3--------------| 

Verse 

G|--------------------------|-------------------------------| 
D|--------------------------|-------------------------------| 
A|--------------------------|-------------------------------| 
E|-7-7--7-7-7--7-7-7--7-7-7-|-7-5-5--5-3-3--3-5-5--5-3-3--3-| 

G|----------------------------|-------------------------------| 
D|----------------------------|-------------------------------| 
A|----------------------------|-------------------------------| 
E|-7-7-7--7-7-7--7-7-7--7-7-7-|-7-5-5--5-3-3--3-5-5--5-3-3--3-| 

G|----------------------------|-------------------------------| 
D|----------------------------|-------------------------------| 
A|----------------------------|-------------------------------| 
E|-7-7-7--7-7-7--7-7-7--7-7-7-|-7-5-5--5-3-3--3-5-5--5-3-3--3-| 

G|----------------------------|-------------------------------| 
D|----------------------------|-------------------------------| 
A|----------------------------|-------------------------------| 
E|-7-7-7--7-7-7--7-7-7--7-7-7-|-7-5-5--5-3-3--3-5-5--5-3-3--3-| 

Chorus 

G|-------------------------|------------------------| 
D|-------------------------|------------------------| 
A|-------------7--7--7--7--|------------------------| 
E|-3--3--3--3--------------|-5-5-5-5-5-5-5-5-5-5-5--| 

G|-------------------------|------------------------| 
D|-------------------------|------------------------| 
A|-------------7--7--7--7--|------------------------| 
E|-3--3--3--3--------------|-5-5-5-5-5-5-5-5-5-5-5--| 

G|-------------------------|------------------------| 
D|-------------------------|------------------------| 
A|-------------7--7--7--7--|------------------------| 
E|-3--3--3--3--------------|-5-5-5-5-5-5-5-5-5-5-5--| 

G|-------------------------|-----------------------| 
D|-------------------------|-----------------------| 
A|-------------7--7--7--7--|-------------4-5-------| 
E|-3--3--3--3--------------|-5-5-5-5-5-5-----------| 

G|-------------------------| 
D|-------------------------| 
A|--------------4-5--------| 
E|--5-5-5-5-5-5------------| 

Bridge 

G|---------------------------------|---------------------------------| 
D|---------------------------------|---------------------------------| 
A|---------4-4-4-4---------5-5-5-5-|---------4-4-4-4---------5-5-5-5-| 
E|-5-5-5-5---------2-2-2-2---------|-5-5-5-5---------2-2-2-2---------| 

G|------------------------|-----------------------| 
D|------------------------|-----------------------| 
A|-------------4-5--------|-------------4-5-------| 
E|-5-5-5-5-5-5------------|-5-5-5-5-5-5-----------| 

G|---------------------------------|---------------------------------| 
D|---------------------------------|---------------------------------| 
A|---------4-4-4-4---------5-5-5-5-|---------4-4-4-4---------5-5-5-5-| 
E|-5-5-5-5---------2-2-2-2---------|-5-5-5-5---------2-2-2-2---------| 

G|---------------------------------|---------------------------------| 
D|---------------------------------|---------------------------------| 
A|---------4-4-4-4---------5-5-5-5-|-------------4-5-----------------| 
E|-5-5-5-5---------2-2-2-2---------|-5-5-5-5-5-5---------------------| 

Verse 

G|--------------------------|-------------------------------| 
D|--------------------------|-------------------------------| 
A|--------------------------|-------------------------------| 
E|-7-7--7-7-7--7-7-7--7-7-7-|-7-5-5--5-3-3--3-5-5--5-3-3--3-| 

G|----------------------------|-------------------------------| 
D|----------------------------|-------------------------------| 
A|----------------------------|-------------------------------| 
E|-7-7-7--7-7-7--7-7-7--7-7-7-|-7-5-5--5-3-3--3-5-5--5-3-3--3-| 

G|----------------------------|-------------------------------| 
D|----------------------------|-------------------------------| 
A|----------------------------|-------------------------------| 
E|-7-7-7--7-7-7--7-7-7--7-7-7-|-7-5-5--5-3-3--3-5-5--5-3-3--3-| 

G|----------------------------|-------------------------------| 
D|----------------------------|-------------------------------| 
A|----------------------------|-------------------------------| 
E|-7-7-7--7-7-7--7-7-7--7-7-7-|-7-5-5--5-3-3--3-5-5--5-3-3--3-| 

Chorus 

G|-------------------------|------------------------| 
D|-------------------------|------------------------| 
A|-------------7--7--7--7--|------------------------| 
E|-3--3--3--3--------------|-5-5-5-5-5-5-5-5-5-5-5--| 

G|-------------------------|------------------------| 
D|-------------------------|------------------------| 
A|-------------7--7--7--7--|------------------------| 
E|-3--3--3--3--------------|-5-5-5-5-5-5-5-5-5-5-5--| 

G|-------------------------|------------------------| 
D|-------------------------|------------------------| 
A|-------------7--7--7--7--|------------------------| 
E|-3--3--3--3--------------|-5-5-5-5-5-5-5-5-5-5-5--| 

G|-------------------------| 
D|-------------------------| 
A|-------------7-----------| 
E|-3--3--3--3--------------| 

G|-------------------------| 
D|-------------------------| 
A|--------------4-5--------| 
E|--5-5-5-5-5-5------------| 

Outro 

G|---------------------------------|---------------------------------| 
D|---------------------------------|---------------------------------| 
A|---------4-4-4-4---------5-5-5-5-|---------4-4-4-4---------5-5-5-5-| 
E|-5-5-5-5---------2-2-2-2---------|-5-5-5-5---------2-2-2-2---------| 

G|---------------------------------|---------------------------------| 
D|---------------------------------|---------------------------------| 
A|---------4-4-4-4---------5-5-5-5-|---------4-4-4-4---------5-5-5-5-| 
E|-5-5-5-5---------2-2-2-2---------|-5-5-5-5---------2-2-2-2---------| 

G|---------------------------------|---------------------------------| 
D|---------------------------------|---------------------------------| 
A|---------4-4-4-4---------5-5-5-5-|---------4-4-4-4---------5-5-5-5-| 
E|-5-5-5-5---------2-2-2-2---------|-5-5-5-5---------2-2-2-2---------| 

G|---------------------------------|-----------------------------------| 
D|---------------------------------|-----------------------------------| 
A|---------4-4-4-4---------5-5-5-5-|---------4-4-4-4---------5-5-5-5---| 
E|-5-5-5-5---------2-2-2-2---------|-5-5-5-5---------2-2-2-2---------5-| 
		  

See also:

bass Green Day - Basket Case bass The All American Rejects - My Paper Heart bass The All American Rejects - Swing Swing bass Green Day - 80 bass Blink 182 - Always bass Blink 182 - First Date
e-chords

Other versions:

bass Wavves - Exercise
auto scroll beats size up size down change color hide chords drawings
tab show chords e-chords YouTube Clip e-chords hide all tabs e-chords go to top tab

share