Wavves

Animals

Wavves

bass

by  GUSTSILVA

save to print version add songbook text version e-mail correct tuner
chordsukulelecavacokeyboardtabbassdrumsharmonicaflute Guitar Pro
close

there isn't a video lesson for this song

chords

Animals

	  		
Intro 

G|----------------------------------|---------------------------------------------| 
D|----------------------------------|---------------------------------------------| 
A|----------------------------------|-2--2--2--2-3-3-3-4-4-4-5-5-5--5--5--5--5--5-| 
E|-5--5--5--5--5----2--2--2--2--2---|---------------------------------------------| 

G|------------------------------------------|---------------------------------------------| 
D|------------------------------------------|---------------------------------------------| 
A|------------------------------------------|-2--2--2--2-3-3-3-4-4-4-5-5-5--5--5--5--5--5-| 
E|-5--5--5--5--5--4--2--2--2--2--2--2--2--2-|---------------------------------------------| 

G|------------------------------------------|---------------------------------------------| 
D|------------------------------------------|---------------------------------------------| 
A|------------------------------------------|-2--2--2--2-3-3-3-4-4-4-5-5-5--5--5--5--5--5-| 
E|-5--5--5--5--5--4--2--2--2--2--2--2--2--2-|---------------------------------------------| 

Verse 

G|----------------------------------|---------------------------------------------| 
D|----------------------------------|---------------------------------------------| 
A|----------------------------------|-2--2--2--2-3-3-3-4-4-4-5-5-5--5--5--5--5--5-| 
E|-5--5--5--5--5----2--2--2--2--2---|---------------------------------------------| 

G|----------------------------------|---------------------------------------------| 
D|----------------------------------|---------------------------------------------| 
A|----------------------------------|-2--2--2--2-3-3-3-4-4-4-5-5-5--5--5--5--5--5-| 
E|-5--5--5--5--5----2--2--2--2--2---|---------------------------------------------| 

G|------------------------------------------|---------------------------------------------| 
D|------------------------------------------|---------------------------------------------| 
A|------------------------------------------|-2--2--2--2-3-3-3-4-4-4-5-5-5--5--5--5--5--5-| 
E|-5--5--5--5--5--4--2--2--2--2--2--2--2--2-|---------------------------------------------| 

G|------------------------------------------|---------------------------------------------| 
D|------------------------------------------|---------------------------------------------| 
A|------------------------------------------|-2--2--2--2-3-3-3-4-4-4-5-5-5--5--5--5--5--5-| 
E|-5--5--5--5--5--4--2--2--2--2--2--2--2--2-|---------------------------------------------| 

Chorus 

G|---------------------------------------------------------------------------| 
D|---------------------------------------------------------------------------| 
A|-----------------------------------5-5-5-5-5/9-7-7-7-7-9-7-9/12------------| 
E|-7-5-7-5--5-5-5-5-5-5--2-2-2-2-2-2-----------------------------------------| 

G|---------------------------------------------------------------------------| 
D|---------------------------------------------------------------------------| 
A|-12-12-12-12-12-12-12-------------5-5-5-5-5/9-7-7-7-7-9-7------------------| 
E|----------------------2-2-2-2-2-2-------------------------9-7--------------| 

Verse 

G|----------------------------------|---------------------------------------------| 
D|----------------------------------|---------------------------------------------| 
A|----------------------------------|-2--2--2--2-3-3-3-4-4-4-5-5-5--5--5--5--5--5-| 
E|-5--5--5--5--5----2--2--2--2--2---|---------------------------------------------| 

G|----------------------------------|---------------------------------------------| 
D|----------------------------------|---------------------------------------------| 
A|----------------------------------|-2--2--2--2-3-3-3-4-4-4-5-5-5--5--5--5--5--5-| 
E|-5--5--5--5--5----2--2--2--2--2---|---------------------------------------------| 

G|------------------------------------------|---------------------------------------------| 
D|------------------------------------------|---------------------------------------------| 
A|------------------------------------------|-2--2--2--2-3-3-3-4-4-4-5-5-5--5--5--5--5--5-| 
E|-5--5--5--5--5--4--2--2--2--2--2--2--2--2-|---------------------------------------------| 

G|------------------------------------------|---------------------------------------------| 
D|------------------------------------------|---------------------------------------------| 
A|------------------------------------------|-2--2--2--2-3-3-3-4-4-4-5-5-5--5--5--5--5--5-| 
E|-5--5--5--5--5--4--2--2--2--2--2--2--2--2-|---------------------------------------------| 


Chorus 

G|-11-9----------------------------------------------------------------------| 
D|------11-9-----------------------------------------------------------------| 
A|---------------------------------------5-5-5-5-5/9-7-7-7-7-7-7-7-7---------| 
E|------------5-5-5-5-5-5--2-2-2-2-2-2-2-------------------------------------| 

G|----------------------------------------------------------------| 
D|----------------------------------------------------------------| 
A|-12-12-12-12-12-12-9-9-9-9-9-9-5-5-5-5-5-5/9-7-7-7-7-7-9--------| 
E|---------------------------------------------------------7-9----| 

Outro 

G|----------------------------------------------------------------| 
D|----------------------------------------------------------------| 
A|-----------------------------5-5-5-5-5/9-7-7-7-7-7-7-7-7--------| 
E|--5-5-5-5-5-5--2-2-2-2-2-2-2------------------------------------| 

G|----------------------------------------------------------------| 
D|----------------------------------------------------------------| 
A|-12-12-12-12-12-12-9-9-9-9-9-9-5-5-5-5-5-5/9-7-7-7-7-7-9--------| 
E|---------------------------------------------------------9-7----| 

G|----------------------------------------------------------------| 
D|----------------------------------------------------------------| 
A|-----------------------------5-5-5-5-5/9-7-7-7-7-7-7-7-7--------| 
E|--5-5-5-5-5-5--2-2-2-2-2-2-2------------------------------------| 

G|----------------------------------------------------------------| 
D|----------------------------------------------------------------| 
A|-12-12-12-12-12-12-9-9-9-9-9-9-5-5-5-5-5-5/9-7-7-7-7-7-9--------| 
E|---------------------------------------------------------9-7----|  
		  

See also:

bass Green Day - Basket Case bass The All American Rejects - My Paper Heart bass The All American Rejects - Swing Swing bass Green Day - 80 bass Blink 182 - Always bass Blink 182 - First Date
e-chords

Other versions:

bass Coldplay - Animals bass Wavves - Animals
auto scroll beats size up size down change color hide chords drawings
tab show chords e-chords YouTube Clip e-chords hide all tabs e-chords go to top tab

share