Waterparks

Dizzy

Waterparks

bass

by  IRONPOWER4EVER

save to print version add songbook text version e-mail correct tuner
chordsukulelecavacokeyboardtabbassdrumsharmonicaflute Guitar Pro
close

there isn't a video lesson for this song

chords

Dizzy

Key:  D More
Dizzy Key AA
Dizzy Key A#A#
Dizzy Key BB
Dizzy Key CC(one step down)
Dizzy Key C#C#(half step down)
Dizzy Key DD(original key)
Dizzy Key D#D#(half step up)
Dizzy Key EE(one step up)
Dizzy Key FF
Dizzy Key F#F#
Dizzy Key GG
Dizzy Key G#G#
	  		verse 1 (If I could I'd trade my heart...) no bass 

Pre-Chorus (I don't wanna talk about it...) no bass 

Chorus (That I don't hear from my friends...) no bass 

verse 2 (Daylight savings gives me time...) no bass 

Pre-Chorus (I don't wanna talk about it...) 

G|---------------------------------|-------------------------11-10----------| 
D|-----3---------6---------11--10--|-----3---------6---------------11-------| 
A|-1------1--4------4--8-----------|-1------1--4------4--8------------11-13-|  x2 
E|---------------------------------|----------------------------------------| 

Chorus 

G|----------------------|---------------------------| 
D|----------------------|---------------------------| 
A|--1-1-1---------------|--1-1-1-------------4----4-|  x8 
E|--------1-1-2----2--2-|--------1-1-2----2/4--2/4--| 



************************************ 

| /  Slide up 

************************************ 
		  

See also:

bass Deep Purple - Burn (ver. 2) bass Deep Purple - Smoke On The Water (ver. 3) bass Deep Purple - Strange kind of woman bass Deep Purple - Into The Fire bass Deep Purple - Burn Ver.(2) bass Deep Purple - Smoke On The Water
e-chords

Other versions:

bass Goo Goo Dolls - Dizzy bass Waterparks - Dizzy
auto scroll beats size up size down change color hide chords drawings
tab show chords e-chords YouTube Clip e-chords hide all tabs e-chords go to top tab

share