save to print version add songbook text version e-mail correct tuner
chordsukulelecavacokeyboardtabbassdrumsharmonicaflute Guitar Pro
close

there isn't a video lesson for this song

chords

Sushi

	  		Intro 

G|-----------------------------------------------------------------| 
D|-----------------------------------------------------------------| 
A|-----------------------------------------------------------------| 
E|-----------------------------------------------------------------| 
   1 + 2 + 3 + 4 + 1 + 2 + 3 + 4 + 1 + 2 + 3 + 4 + 1 + 2 + 3 + 4 + 

G|-----------------------------------------------------------------| 
D|---------------------------------5-5-5-5-5-5-5-5-3-3-3-3-3-3-3-3-| 
A|-----------------5-5-5-5-5-5-5-5---------------------------------| 
E|-6-6-6-6-6-6-6-6-------------------------------------------------| 
   1 + 2 + 3 + 4 + 1 + 2 + 3 + 4 + 1 + 2 + 3 + 4 + 1 + 2 + 3 + 4 + 


verse 1 

G|-----------------------------------------------------------------| 
D|---------------------------------5-5---5-5-5---5-3-3---3-3-3---3-| 
A|-----------------5-5---5-5-5---5---------------------------------| 
E|-6-6---6-6-6---6-------------------------------------------------| 
   1 + 2 + 3 + 4 + 1 + 2 + 3 + 4 + 1 + 2 + 3 + 4 + 1 + 2 + 3 + 4 + 


G|-----------------------------------------------------------------| 
D|---------------------------------5-5---5-5-5---5-3-3-3-3-3-------| 
A|-----------------5-5---5-5-5---5---------------------------------| 
E|-6-6---6-6-6---6-------------------------------------------------| 
   1 + 2 + 3 + 4 + 1 + 2 + 3 + 4 + 1 + 2 + 3 + 4 + 1 + 2 + 3 + 4 + 



G|-----------------------------------------------------------------| 
D|---------------------------------5-5-5-5-5-5-5-5-3-3-3-3-3-3-3-3-| 
A|-----------------5-5-5-5-5-5-5-5---------------------------------| 
E|-6-6-6-6-6-6-6-6-------------------------------------------------| 
   1 + 2 + 3 + 4 + 1 + 2 + 3 + 4 + 1 + 2 + 3 + 4 + 1 + 2 + 3 + 4 + 

G|-----------------------------------------------------------------| 
D|---------------------------------5-5-5-5-5-5-5-5-3-3-3-3-3-------| 
A|-----------------5-5-5-5-5-5-5-5---------------------------------| 
E|-6-6-6-6-6-6-6-6-------------------------------------------------| 
   1 + 2 + 3 + 4 + 1 + 2 + 3 + 4 + 1 + 2 + 3 + 4 + 1 + 2 + 3 + 4 + 



Chorus 

G|-----------------------------------------------------------------| 
D|-----------------------------------------------------------------| 
A|-----------------------------------------------------------------| 
E|-3-3-3-3-3-3-3-3-3-3-3-3-5-5-5-5-6-6-6-6-6-6-6-6-6-6-6-6-6-6-6-6-| 
   1 + 2 + 3 + 4 + 1 + 2 + 3 + 4 + 1 + 2 + 3 + 4 + 1 + 2 + 3 + 4 + 

G|-----------------------------------------------------------------| 
D|-----------------------------------------------------------------| 
A|-3-3-3-3-3-3-3-3-3-3-3-3-3-3-3-3---------------------------------| 
E|---------------------------------6-6-6-6-6-6-6-6-6-6-6-6-6-6-6-6-| 
   1 + 2 + 3 + 4 + 1 + 2 + 3 + 4 + 1 + 2 + 3 + 4 + 1 + 2 + 3 + 4 + 

G|-----------------------------------------------------------------| 
D|-5-5-5-5-5-5-5-5-5-5-5-5-7-7-7-7---------------------------------| 
A|-----------------------------------------------------------------| 
E|---------------------------------6-6-6-6-6-6-6-6-6-6-6-6-6-6-6-6-| 
   1 + 2 + 3 + 4 + 1 + 2 + 3 + 4 + 1 + 2 + 3 + 4 + 1 + 2 + 3 + 4 + 

G|-----------------------------------------------------------------| 
D|-----------------------------------------------------------------| 
A|-3-3-3-3-3-3-3-3-3-3-3-3-3-3-3-3---------------------------------| 
E|---------------------------------6-6-6-6-6-6-6-6-6-6-6-6-6-6-6-6-| 
   1 + 2 + 3 + 4 + 1 + 2 + 3 + 4 + 1 + 2 + 3 + 4 + 1 + 2 + 3 + 4 + 


Interlude 

G|--------------------------------------------------------------------| 
D|---------------------------------5-5-5-5------5-----3---------------| 
A|-----------------5---------5----------------------------------------| 
E|-6---------6--------------------------------------------------------| 
   1 + 2 + 3 + 4 + 1 + 2 + 3 + 4 + 1   +   2 + 3 + 4 + 1 + 2 + 3 + 4 + 

G|-----------------------------------------------------------------| 
D|---------------------------------5-5-5-5-5-5-5-5-3-3-3-3-3-3-3-3-| 
A|-----------------5-5-5-5-5-5-5-5---------------------------------| 
E|-6-6-6-6-6-6-6-6-------------------------------------------------| 
   1 + 2 + 3 + 4 + 1 + 2 + 3 + 4 + 1 + 2 + 3 + 4 + 1 + 2 + 3 + 4 + 

verse 2 

G|-----------------------------------------------------------------| 
D|-----------------------------------------------------------------| 
A|-----------------------------------------------------------------| 
E|-----------------------------------------------------------------| 
   1 + 2 + 3 + 4 + 1 + 2 + 3 + 4 + 1 + 2 + 3 + 4 + 1 + 2 + 3 + 4 + 

G|-----------------------------------------------------------------| 
D|-----------------------------------------------------------------| 
A|-----------------------------------------------------------------| 
E|-----------------------------------------------------------------| 
   1 + 2 + 3 + 4 + 1 + 2 + 3 + 4 + 1 + 2 + 3 + 4 + 1 + 2 + 3 + 4 + 


G|-----------------------------------------------------------------| 
D|---------------------------------5-5-5-5-5-5-5-5-3-3-3-3-3-3-3-3-| 
A|-----------------5-5-5-5-5-5-5-5---------------------------------| 
E|-6-6-6-6-6-6-6-6-------------------------------------------------| 
   1 + 2 + 3 + 4 + 1 + 2 + 3 + 4 + 1 + 2 + 3 + 4 + 1 + 2 + 3 + 4 + 

G|-----------------------------------------------------------------| 
D|---------------------------------5-5-5-5-5-5-5-5-3-3-3-3-3-------| 
A|-----------------5-5-5-5-5-5-5-5---------------------------------| 
E|-6-6-6-6-6-6-6-6-------------------------------------------------| 
   1 + 2 + 3 + 4 + 1 + 2 + 3 + 4 + 1 + 2 + 3 + 4 + 1 + 2 + 3 + 4 + 


Chorus 

G|-----------------------------------------------------------------| 
D|-----------------------------------------------------------------| 
A|-----------------------------------------------------------------| 
E|-3-3-3-3-3-3-3-3-3-3-3-3-5-5-5-5-6-6-6-6-6-6-6-6-6-6-6-6-6-6-6-6-| 
   1 + 2 + 3 + 4 + 1 + 2 + 3 + 4 + 1 + 2 + 3 + 4 + 1 + 2 + 3 + 4 + 

G|-----------------------------------------------------------------| 
D|-----------------------------------------------------------------| 
A|-3-3-3-3-3-3-3-3-3-3-3-3-3-3-3-3---------------------------------| 
E|---------------------------------6-6-6-6-6-6-6-6-6-6-6-6-6-6-6-6-| 
   1 + 2 + 3 + 4 + 1 + 2 + 3 + 4 + 1 + 2 + 3 + 4 + 1 + 2 + 3 + 4 + 

G|-----------------------------------------------------------------| 
D|-5-5-5-5-5-5-5-5-5-5-5-5-7-7-7-7---------------------------------| 
A|-----------------------------------------------------------------| 
E|---------------------------------6-6-6-6-6-6-6-6-6-6-6-6-6-6-6-6-| 
   1 + 2 + 3 + 4 + 1 + 2 + 3 + 4 + 1 + 2 + 3 + 4 + 1 + 2 + 3 + 4 + 

G|-----------------------------------------------------------------| 
D|-----------------------------------------------------------------| 
A|-3-3-3-3-3-3-3-3-3-3-3-3-3-3-3-3---------------------------------| 
E|---------------------------------6-6-6-6-6-6-6-6-6-6-6-6-6-6-6-6-| 
   1 + 2 + 3 + 4 + 1 + 2 + 3 + 4 + 1 + 2 + 3 + 4 + 1 + 2 + 3 + 4 + 

Interlude 

G|-----------------5---------5----------------------------------------| 
D|---------------------------------5-5-5-5------5-----5---------------| 
A|-6---------6--------------------------------------------------------| 
E|--------------------------------------------------------------------| 
   1 + 2 + 3 + 4 + 1 + 2 + 3 + 4 + 1   +   2 + 3 + 4 + 1 + 2 + 3 + 4 + 


Bridge 

G|-----------------5-5-5-5-5-5-5-5---------------------------------| 
D|---------------------------------5-5-5-5-5-5-5-5-5-5-5-5-5-5-5-5-| 
A|-6-6-6-6-6-6-6-6-------------------------------------------------| 
E|-----------------------------------------------------------------| 
   1 + 2 + 3 + 4 + 1 + 2 + 3 + 4 + 1 + 2 + 3 + 4 + 1 + 2 + 3 + 4 + 

G|-----------------5-5-5-5-5-5-5-5---------------------------------| 
D|---------------------------------5-5-5-5-5-5-5-5-5-5-5-5-5-5-5-5-| 
A|-6-6-6-6-6-6-6-6-------------------------------------------------| 
E|-----------------------------------------------------------------| 
   1 + 2 + 3 + 4 + 1 + 2 + 3 + 4 + 1 + 2 + 3 + 4 + 1 + 2 + 3 + 4 + 

G|-----------------5-5-5-5-5-5-5-5---------------------------------| 
D|---------------------------------5-5-5-5-5-5-5-5-5-5-5-5-5-5-5-5-| 
A|-6-6-6-6-6-6-6-6-------------------------------------------------| 
E|-----------------------------------------------------------------| 
   1 + 2 + 3 + 4 + 1 + 2 + 3 + 4 + 1 + 2 + 3 + 4 + 1 + 2 + 3 + 4 + 

G|-----------------5-5-5-5-5-5-5-5---------------------------------| 
D|-----------------------------------------------------------------| 
A|-6-6-6-6-6-6-6-6-------------------------------------------------| 
E|---------------------------------6-6-6-6-6-6-6-6-6-6-6-6-5-5-5-5-| 
   1 + 2 + 3 + 4 + 1 + 2 + 3 + 4 + 1 + 2 + 3 + 4 + 1 + 2 + 3 + 4 + 


Chorus 

G|-----------------------------------------------------------------| 
D|-----------------------------------------------------------------| 
A|-----------------------------------------------------------------| 
E|-3---------------------------------6-6-6-6-6-6-6-6-6-6-6-6-6-6-6-| 
   1 + 2 + 3 + 4 + 1 + 2 + 3 + 4 + 1 + 2 + 3 + 4 + 1 + 2 + 3 + 4 + 

G|-----------------------------------------------------------------| 
D|-----------------------------------------------------------------| 
A|-3-3-3-3-3-3-3-3-3-3-3-3-3-3-3-3---------------------------------| 
E|---------------------------------6-6-6-6-6-6-6-6-6-6-6-6-6-6-6-6-| 
   1 + 2 + 3 + 4 + 1 + 2 + 3 + 4 + 1 + 2 + 3 + 4 + 1 + 2 + 3 + 4 + 

G|-----------------------------------------------------------------| 
D|-5-5-5-5-5-5-5-5-5-5-5-5-7-7-7-7---------------------------------| 
A|-----------------------------------------------------------------| 
E|---------------------------------6-6-6-6-6-6-6-6-6-6-6-6-6-6-6-6-| 
   1 + 2 + 3 + 4 + 1 + 2 + 3 + 4 + 1 + 2 + 3 + 4 + 1 + 2 + 3 + 4 + 

G|-----------------------------------------------------------------| 
D|-----------------------------------------------------------------| 
A|-3-3-3-3-3-3-3-3-3-3-3-3-3-3-3-3---------------------------------| 
E|---------------------------------6-6-6-6-6-6-6-6-6-6-6-6-6-6-6-6-| 
   1 + 2 + 3 + 4 + 1 + 2 + 3 + 4 + 1 + 2 + 3 + 4 + 1 + 2 + 3 + 4 + 

Outro 

G|---------------------------------| 
D|---------------------------------| 
A|---------------------------------| 
E|-3-3-3-3-3-3-3-3-3-3-3-3-3-3-3-3-| 
   1 + 2 + 3 + 4 + 1 + 2 + 3 + 4 + 
		  

See also:

bass Deep Purple - Burn (ver. 2) bass Deep Purple - Smoke On The Water (ver. 3) bass Deep Purple - Strange kind of woman bass Deep Purple - Into The Fire bass Deep Purple - Burn Ver.(2) bass Deep Purple - Smoke On The Water
e-chords

Other versions:

bass Von Wegen Lisbeth - Sushi
auto scroll beats size up size down change color hide chords drawings
tab show chords e-chords YouTube Clip e-chords hide all tabs e-chords go to top tab

share