U2

home > U2

With Or Without You Bass Tab

U2

Difficulty: BeginnerBeginner

by Falling+Up

tuner correct add songbook print version text version save to e-mail
chordsukulelecavacokeyboardtabbassdrummharmonicsflute Guitar Pro
chords

With Or Without You

Year: 1987 - Album: Best Of 1980-1990

(Adam Clayron/ Bono Larry Mullen, jr./ The Edge)

	  
G|----------------------------| 
D|----------------------------| 
A|---5--5--5--5--5--5--5------| 
E|----------------------------| 

G|-------------------------------------------------| 
D|-------------------------------------------------| 
A|--0--0--0--0--0--0--0--0--2--2--2--2--2--2--2--2-| 
E|-------------------------------------------------| 

G|-----------------------------------------| 
D|-----------------------------------------| 
A|-------------------------2/5--5--5--5--5-| 
E|----3--3--3--3--3--3--3------------------| 



	  

there isn't a video lesson for this song

request
Search
auto scroll beats size up size down change color hide chords drawings
tab show chords e-chords YouTube Clip e-chords hide all tabs e-chords go to top tab