Tom Petty

home > Tom Petty

Runnin Down A Dream Bass Tab

Tom Petty

Difficulty: AdvancedAdvanced

tuner correct add songbook print version text version save to e-mail
chordsukulelecavacokeyboardtabbassdrumsharmonicsflute Guitar Pro
chords

Runnin Down A Dream

	  Intro (x4) 
 |----------------------------| 
 |----------------------------| 
 |----------------------------| 
 |----------------------------| 
 |----------------------------| 
 |----0-7-0-6-0-5-0-3-0-------| 
 
       Choru 
|-------------------------------------|---------------------------------| 
|-------------------------------------|---------------------------------| 
|-------------------------------------|---------------------------------| 
|------7-7-----5-5----2--2-2-2-2-2-2-2|-----2--2----5---7--7-7-7-7-7-7-7| 
|------7-7-----5-5----2--2-2-2-2-2-2-2|-----2--2----5---7--7-7-7-7-7-7-7| 
|------5-5-----3-3----0--0-0-0-0-0-0-0|-----0--0----3---5--5-5-5-5-5-5-5| 
 
by max s. username: mxymha. email: mgs_90@yahoo.com 
 

	  

there isn't a video lesson for this song

request
Search
auto scroll beats size up size down change color hide chords drawings
tab show chords e-chords YouTube Clip e-chords hide all tabs e-chords go to top tab