The Drifters

Baltimore

The Drifters

bass

by  AMAN_CLAUDINO

save to print version add songbook text version e-mail correct tuner
chordsukulelecavacokeyboardtabbassdrumsharmonicaflute Guitar Pro
close

there isn't a video lesson for this song

chords

Baltimore

	  		

Intro: Vocals only 

verse 1: (0.06 secs) 
G|------------------------------------------------------------------| 
D|---------------------------5--0--5--0-3-5--0--5--0-3--------------| 
A|-5--0--5--0-3-5--0--5--0-3---------------------------5--0--5--0-3-| 
E|------------------------------------------------------------------| 

G|-------------------------------------------------------------| 
D|--------------7---7--7---5---5--5----------------------------| 
A|-5--0--5--0-3---7---7------5---5---5--0--5--0-3-5--0--5--0-3-| 
E|-------------------------------------------------------------| 

Bridge 1: 
G|------------------------------------------------------------------| 
D|--------------------------------------------5--5---0-3-5--5---0-3-| 
A|-5--5---0-3-5--5---0-3-5--5--0-3-5--5---0-3-----------------------| 
E|------------------------------------------------------------------| 

G|----------------------------------------------------------------| 
D|-----------------------7--7--4-5--5---0-3-----------------------| 
A|-5--5---0-3-5--5---0-3------7-------------5--5---0-3-5--5---0-3-| 
E|----------------------------------------------------------------| 

verse 2: 
G|--------------------------------------------------------------------| 
D|-------------------------------------------------------5--0--5--0-3-| 
A|-5--0--5--0-3-5--0--5--0-3--5--0--5--0-3--5--0--5--0-3--------------| 
E|--------------------------------------------------------------------| 

G|------------------------------------------------------------| 
D|-5--0--5--0-3---------------------------7---7--7---5---5--5-| 
A|--------------5--0--5--0-3-5--0--5--0-3---7---7------5---5--| 
E|------------------------------------------------------------| 

G|---------------------------| 
D|---------------------------| 
A|-5--0--5--0-3-5--0--5--0-3-| 
E|---------------------------| 

Interlude: 
G|------------------------------------------------------------------| 
D|--------------------------------------------5--5---0-3-5--5---0-3-| 
A|-5--5---0-3-5--5---0-3-5--5--0-3-5--5---0-3-----------------------| 
E|------------------------------------------------------------------| 

G|----------------------------------------------------------------| 
D|-----------------------7--7--4-5--5---0-3-----------------------| 
A|-5--5---0-3-5--5---0-3------7-------------5--5---0-3-5--5---0-3-| 
E|----------------------------------------------------------------| 

Bridge 2:                                                          (Break) 
G|---------------------------------------------------------------------| 
D|-----------------------5--5---0-3-5--5---0-3-----------------------7-| 
A|-5--5---0-3-5--5---0-3-----------------------5--5---0-3-5--5---0-3---| 
E|---------------------------------------------------------------------| 

verse 3: 
G|--------------------------------------------------------------------| 
D|-------------------------------------------------------5--0--5--0-3-| 
A|-5--0--5--0-3-5--0--5--0-3--5--0--5--0-3--5--0--5--0-3--------------| 
E|--------------------------------------------------------------------| 

G|------------------------------------------------------------| 
D|-5--0--5--0-3---------------------------7---7--7---5---5--5-| 
A|--------------5--0--5--0-3-5--0--5--0-3---7---7------5---5--| 
E|------------------------------------------------------------| 

G|---------------------------| 
D|---------------------------| 
A|-5--0--5--0-3-5--0--5--0-3-| 
E|---------------------------| 

Outro: 
G|------------------------------------------------------------------| 
D|--------------------------------------------5--5---0-3-5--5---0-3-| 
A|-5--5---0-3-5--5---0-3-5--5--0-3-5--5---0-3-----------------------| 
E|------------------------------------------------------------------| 

                                                    (Song Fades Out) 
G|----------------------------------------------------------------| 
D|-----------------------7--7--4-5--5---0-3-----------------------| 
A|-5--5---0-3-5--5---0-3------7-------------5--5---0-3-5--5---0-3-| 
E|----------------------------------------------------------------| 
		  

See also:

bass Deep Purple - Highway Star bass Eric Clapton - After Midnight bass The Beatles - A Day in the Life bass Coldplay - Clocks (ver. 2) bass Coldplay - The Scientist (ver. 2) bass The Beatles - Hello Goodbye
e-chords

Other versions:

bass The Drifters - Baltimore
auto scroll beats size up size down change color hide chords drawings
tab show chords e-chords YouTube Clip e-chords hide all tabs e-chords go to top tab

share