The Birthday Massacre

Surrender

The Birthday Massacre

bass

by  ADALGOMES

save to print version add songbook text version e-mail correct tuner
chordsukulelecavacokeyboardtabbassdrumsharmonicaflute Guitar Pro
close

there isn't a video lesson for this song

chords

Surrender

	  		
Intro bass begins at 0:25 
G|------------------------------------| 
D|------------------------------------| 
A|------------------------------------| 
D|4~-------0~-------4~-------0~-------| 

Verse 0:43 "Tonight they're calling out your name..." 
G|------------------------------------| 
D|------------------------------------| 
A|------------------------------------| 
D|4~-------0~-------4~-------0~-------| x2 

Chorus 1:20 "Surrender, I know your hiding here..." 
G|-------------------------------------| 
D|-------------------------------------| 
A|-------------------------------------| 
D|4~-------6~---7~---0~-------2~-------| x2 

Pre-verse 1:39 
G|------------------| 
D|------------------| 
A|------------------| 
D|4~-------0~-------| 

verse 1:48 "When you're sleeping, I'm out here..." 
G|------------------------------------| 
D|------------------------------------| 
A|------------------------------------| 
D|4~-------0~-------4~-------0~-------| x2 

Chorus 2:25 "Surrender, I know your hiding here..." 
G|-------------------------------------| 
D|-------------------------------------| 
A|-------------------------------------| 
D|4~-------6~---7~---0~-------2~-------| x4 


Bridge 3:02-3:39 no bass 

Pre-Chorus 3:39 
G|------------------------------------| 
D|------------------------------------| 
A|------------------------------------| 
D|4~-------0~-------4~-------0~-------| 

Chorus 3:57 "Surrender, I know your hiding here..." 
G|-------------------------------------| 
D|-------------------------------------| 
A|-------------------------------------| 
D|4~-------6~---7~---0~-------2~-------| x4 

Outro 4:34 
G|------------------------------------| 
D|------------------------------------| 
A|------------------------------------| 
D|4~-------0~-------4~-------0~-------| 

Bass stops at 4:53 



************************************ 

| ~  Vibrato 

************************************ 
		  

See also:

bass Sum 41 - Pieces (VER.2) bass Barenaked Ladies - One Week bass Sum 41 - What I Believe bass The Birthday Massacre - Pale bass Sum 41 - A.N.I.C bass Sum 41 - The Hell Song
e-chords

Other versions:

bass Simple Plan - Surrender bass The Birthday Massacre - Surrender
auto scroll beats size up size down change color hide chords drawings
tab show chords e-chords YouTube Clip e-chords hide all tabs e-chords go to top tab

share with facebook