The Association

Toymaker

The Association

bass

by  VICTBORGES

save to print version add songbook text version e-mail correct tuner
chordsukulelecavacokeyboardtabbassdrumsharmonicaflute Guitar Pro
close

there isn't a video lesson for this song

chords

Toymaker

	  		
Tuning: EADG 

G|----------------------------------------------------------------| 
D|----3---4---6-----------------------3---------------------------| 
A|6-------------------3-------4---------------6---------------6---| 
E|------------------------------------------------4-----4-4-------| 

G|----------------------------------------------------------------| 
D|----3---4---6-----------------------3-----------------------6---| 
A|6-------------------3-------4---------------6-------------------| 
E|------------------------------------------------4-----4-4-------| 

G|------------------------------------------------| 
D|----6-------6-----------------------------------| 
A|------------------------------------------------| 
E|----------------4-----4-4-----------------------| 

0:17 

G|--------------------------------------------------------8-------| 
D|8-----------8---8-----------8-----------------------8-----------| 
A|--------------------------------6-----------6-------------------| 
E|----------------------------------------------------------------| 

G|----------------------------------------------------------------| 
D|6-----------6---6---------------------------------------6---7---| 
A|----------------------------6-----------------------------------| 
E|--------------------------------4-------------------------------| 

G|--------------------------------------------------------8-------| 
D|8-----------8---8-----------------------------------8-----------| 
A|----------------------------8---6-----------6---------------6---| 
E|----------------------------------------------------------------| 

G|----------------------------------------------------------------| 
D|6---3-------------------4---6---6---3-------------------4---6---| 
A|--------6---4-------6-------------------6---4-------6-----------| 
E|----------------------------------------------------------------| 

0:37 

G|----------------------------------------------------------------| 
D|7-----------7---6-----------6---4---------------4-----------4---| 
A|--------------------------------------------4---------4---------| 
E|----------------------------------------------------------------| 

G|----------------------------------------------------------------| 
D|--------------------------------5-----------5-------5-----------| 
A|----------------------------5-------------------------------5---| 
E|3-----------3---3-----------------------------------------------| 

G|----------------------------------------------------------------| 
D|5-----------5-------5-------5---3-----------3-----------3-------| 
A|--------------------------5-------------------------3-------3---| 
E|----------------------------------------------------------------| 

G|---------------------6------------------------------------------| 
D|------------------6-----6-------------------6-------6-------6---| 
A|1-------1---/---4-----------4-----------------------------------| 
E|--------------------------------4-----4-4-----------------------| 

0:57 

G|----------------------------------------------------------------| 
D|8-----------8---8---------------------------------------5-------| 
A|--------------------8-------8---6---------------6---8-------6---| 
E|------------------------6-------------------6-------------------| 

G|----------------------------------------------------------------| 
D|9---------------9---9-----------9-----------9---9---9-------9---| 
A|------------9---------------9-----------------------------9-----| 
E|----------------------------------------------------------------| 

G|----------------------------------------------------------------| 
D|6-----------6---6---6-----------6-----------6---6---6-----------| 
A|----------------------------6-------------------------------6---| 
E|----------------------------------------------------------------| 

G|----------------------------------------------------------------| 
D|7-----------7-------------------------------6-------6-------6---| 
A|--------------------7-------7-----------------------------------| 
E|------------------------5-------4-----4-4-----------------------| 

1:17 

G|--------------------------------------------------------8-------| 
D|8-----------8---8-----------------------------------8-----------| 
A|----------------------------8---6-----------6-------------------| 
E|----------------------------------------------------------------| 

G|----------------------------------------------------------------| 
D|6-----------6---6---------------------------------------6---7---| 
A|----------------------------6-----------------------------------| 
E|--------------------------------4-------------------------------| 

G|--------------------------------------------------------8-------| 
D|8-----------8---8-----------------------------------8-----------| 
A|----------------------------8---6-----------6---------------6---| 
E|----------------------------------------------------------------| 

G|----------------------------------------------------------------| 
D|6---3-------------------4---6---6---3-------------------4---6---| 
A|--------6---4-------6-------------------6---4-------6-----------| 
E|----------------------------------------------------------------| 

1:37 

G|----------------------------------------------------------------| 
D|7-----------7---6-----------6---4---------------4-----------4---| 
A|--------------------------------------------4---------4---------| 
E|----------------------------------------------------------------| 

G|----------------------------------------------------------------| 
D|--------------------------------5-----------5---5---5-----------| 
A|----------------------------5-------------------------------5---| 
E|3-----------3---3-----------------------------------------------| 

G|----------------------------------------------------------------| 
D|5-----------5-------5-------5---3---------------3---------------| 
A|--------------------------5-----------------3-------3-------3---| 
E|--------------------------------------------------------1-------| 

G|---------------------6----------| 
D|------------------6-----6-------| 
A|1-------1---/---4-----------4---| 
E|--------------------------------| 

G|----------------------------------------------------------------| 
D|------------6-------6-------6---------------6-------6-------6---| 
A|----------------------------------------------------------------| 
E|4-----4-4-----------------------4-----4-4-----------------------| 

1:59 

G|----------------------------------------------------------------| 
D|8-------8-------8-----------------------------------5-------8---| 
A|--------------8-----8-------8---6-------6-----5/6-8-------6-----| 
E|------------------------6---------------------------------------| 

G|----------------------------------------------------------------| 
D|9-----------9---9---9-------9---9-------9-------9---9-------9---| 
A|--------------9-----------9-------------------9-----------9-----| 
E|----------------------------------------------------------------| 

G|----------------------------------------------------------------| 
D|7-------------------7-------7---7-------7-------7---7-------7---| 
A|--------------7-----------7-------------------7-----------7-----| 
E|----------------------------------------------------------------| 

G|----------------------------------------------------------------| 
D|6---3-------------------4-/-6---6---3-------------------4---6---| 
A|--------6---4-------6-------------------6---4-------6-----------| 
E|----------------------------------------------------------------| 

2:19 

G|----------------------------------------------------------------| 
D|7-----------7---6-----------6---4---------------4-----------4---| 
A|--------------------------------------------4---------4---------| 
E|----------------------------------------------------------------| 

G|----------------------------------------------------------------| 
D|--------------------------------5-----------5---5---5-----------| 
A|----------------------------5-------------------------------5---| 
E|3-----------3---3-----------------------------------------------| 

G|----------------------------------------------------------------| 
D|5-----------5-------5-------5---3---------------3---------------| 
A|--------------------------5-----------------3-------3-------3---| 
E|--------------------------------------------------------1-------| 

G|---------------------6----------| 
D|------------------6-----6-------| 
A|1-------1---/---4-----------4---| 
E|--------------------------------| 

G|----------------------------------------------------------------| 
D|------------6-------6-------6---------------6-------6-------6---| 
A|----------------------------------------------------------------| 
E|4-----4-4-----------------------4-----4-4-----------------------| 

2:41 

G|----------------------------------------------------------------| 
D|8-------8-------8-----------------------------------5-------8---| 
A|--------------8-----8-------8---6-------6-----5/6-8-------6-----| 
E|------------------------6---------------------------------------| 

G|----------------------------------------------------------------| 
D|9-------9-------9---9-------9---9-------9-------9---9-------9---| 
A|--------------9-----------9-------------------9-----------9-----| 
E|----------------------------------------------------------------| 

G|----------------------------------------------------------------| 
D|6-------6-------6---6-------6---6-------6-------6---6-------6---| 
A|--------------6-----------6-------------------6-----------6-----| 
E|----------------------------------------------------------------| 

G|----------------------------------------------------------------| 
D|7-------7-------7---------------------------6-------6-------6---| 
A|--------------7---7-----7---------------------------------------| 
E|--------------------5-------5---4-----4-4-----------------------| 

3:01 Until fadeout. 

G|----------------------------------------------------------------| 
D|------------6-------6-------6-\-------------6-------6-------6-\-| 
A|----------------------------------------------------------------| 
E|4-----4-4-----------------------4-----4-4-----------------------| 
		  

See also:

bass Sweet - Wig Wam Bam bass Diana Ross and The Supremes - In And Out Of Love bass Vic Dana - A Girl Needs To Love And Be Loved bass The Murmaids - Comedy And Tragedy bass The Murmaids - Popsicles And Icicles bass Eddie Floyd - High-heel Sneakers
e-chords

Other versions:

bass The Association - Toymaker
auto scroll beats size up size down change color hide chords drawings
tab show chords e-chords YouTube Clip e-chords hide all tabs e-chords go to top tab

share