The Angels

Cotton Fields

The Angels

bass

by  JOAOEWERTON

save to print version add songbook text version e-mail correct tuner
chordsukulelecavacokeyboardtabbassdrumsharmonicaflute Guitar Pro
close

there isn't a video lesson for this song

chords

Cotton Fields

	  		
0:06 

G|----------------------------------------------------------------| 
D|5---------------5-------------------------------7---------------| 
A|--------------------------------5-------------------------------| 
E|----------------------------------------------------------------| 

G|----------------------------------------------------------------| 
D|----------------7-------------------------------7---------------| 
A|5-------------------------------5-----------------------5-------| 
E|----------------------------------------------------------------| 

G|----------------------------------------------------------------| 
D|----------------7-------------------------------7---------------| 
A|7-------------------------------7-------------------------------| 
E|----------------------------------------------------------------| 

0:18 

G|----------------------------------------------------------------| 
D|----------------7---------------------------------------4-------| 
A|5-------------------------------5---------------7---------------| 
E|----------------------------------------------------------------| 

G|----------------------------------------------------------------| 
D|5---------------5-------------------------------7---------------| 
A|--------------------------------5-------------------------------| 
E|----------------------------------------------------------------| 

G|----------------------------------------------------------------| 
D|----------------7-------------------------------7---------------| 
A|5-------------------------------7-------------------------------| 
E|----------------------------------------------------------------| 

G|----------------------------------------------------------------| 
D|----------------7-------------------------------7---------------| 
A|5-------------------------------5-----------------------5-------| 
E|----------------------------------------------------------------| 

0:34 

G|----------------------------------------------------------------| 
D|5-------------------------------5---------------5---------------| 
A|----------------5-----------------------------------------------| 
E|----------------------------------------------------------------| 

G|----------------------------------------------------------------| 
D|----------------7-------------------------------7---------------| 
A|5-------------------------------5-------------------------------| 
E|----------------------------------------------------------------| 

G|----------------------------------------------------------------| 
D|----------------7-------------------------------7---------------| 
A|5-------------------------------5-----------------------5-------| 
E|----------------------------------------------------------------| 

G|----------------------------------------------------------------| 
D|----------------7-------------------------------7---------------| 
A|7-------------------------------7-----------------------7-------| 
E|----------------------------------------------------------------| 

0:50 

G|----------------------------------------------------------------| 
D|----------------7---------------------------------------4-------| 
A|5-------------------------------5-----------5---7---------------| 
E|----------------------------------------------------------------| 

G|----------------------------------------------------------------| 
D|5---------------5-------------------------------7---------------| 
A|--------------------------------5-------------------------------| 
E|----------------------------------------------------------------| 

G|----------------------------------------------------------------| 
D|----------------7-------------------------------7---------------| 
A|5-------------------------------7-----------------------7-------| 
E|----------------------------------------------------------------| 

G|--------------------------------------------| 
D|----------------7---------------------------| 
A|5-----------------------5-------5-----------| 
E|----------------------------------------6---| 



1:10 

G|----------------------------------------------------------------| 
D|6---------------6-----------5-------------------8-------5-------| 
A|--------------------------------6-------------------------------| 
E|----------------------------------------------------------------| 

G|----------------------------------------------------------------| 
D|----------------8-------------------------------5-------8-------| 
A|6-------------------------------6-------------------------------| 
E|----------------------------------------------------------------| 

G|----------------------------------------------------------------| 
D|----------------8-------------------------------8---------------| 
A|8-------------------------------8-----------------------5-------| 
E|----------------------------------------------------------------| 

G|----------------------------------------------------------------| 
D|----------------8---------------------------------------5-------| 
A|6-------------------------------6---------------8---------------| 
E|----------------------------------------------------------------| 

1:26 

G|----------------------------------------------------------------| 
D|6---------------6-------------------------------5-------8-------| 
A|--------------------------------6-------------------------------| 
E|----------------------------------------------------------------| 

G|----------------------------------------------------------------| 
D|----------------8-------------------------------8---------------| 
A|6-------------------------------8-----------------------5-------| 
E|----------------------------------------------------------------| 

G|----------------------------------------------------------------| 
D|----------------5-------8-------------------------------5-------| 
A|6-------------------------------6---------------8---------------| 
E|----------------------------------------------------------------| 

1:38 

G|----------------------------------------------------------------| 
D|6---------------6---------------6---------------6-----------5---| 
A|----------------------------------------------------------------| 
E|----------------------------------------------------------------| 

G|----------------------------------------------------------------| 
D|----------------8-------------------------------5-------8-------| 
A|6-------------------------------6-------------------------------| 
E|----------------------------------------------------------------| 

G|----------------------------------------------------------------| 
D|----------------8-------------------------------8---------------| 
A|6-------------------------------6-----------------------6-------| 
E|----------------------------------------------------------------| 

G|----------------------------------------------------------------| 
D|----------------8-----------------------8-----------------------| 
A|8-------------------------------8---------------8-------5-------| 
E|----------------------------------------------------------------| 

1:54 

G|----------------------------------------------------------------| 
D|--------------------------------------------------------5-------| 
A|6-------6-------6-------6-------6-------6-------8---------------| 
E|----------------------------------------------------------------| 

G|----------------------------------------------------------------| 
D|6---------------6-------------------------------5-------8-------| 
A|--------------------------------6-------------------------------| 
E|----------------------------------------------------------------| 

G|----------------------------------------------------------------| 
D|--------------------------------8---------------8---------------| 
A|6---------------6---------------------------------------5-------| 
E|----------------------------------------------------------------| 

Until fadeout. 

G|----------------------------------------------------------------| 
D|----------------5---------------8---------------5---------------| 
A|6---------------------------------------------------------------| 
E|----------------------------------------------------------------| 

G|----------------------------------------------------------------| 
D|----------------5-------------------------------8---------------| 
A|6-------------------------------8-------------------------------| 
E|----------------------------------------------------------------| 
		  

See also:

bass Icehouse - Hey Little Girl bass The Cat Empire - Sly bass Cold Chisel - No Good For You bass Cold Chisel - Cheap Wine bass The Angels - Cotton Fields bass Cold Chisel - Only One
e-chords

Other versions:

bass The Angels - Cotton Fields
auto scroll beats size up size down change color hide chords drawings
tab show chords e-chords YouTube Clip e-chords hide all tabs e-chords go to top tab

share