Tenacious D

The Road

Tenacious D

bass

by  LUCICAMARGO

save to print version add songbook text version e-mail correct tuner
chordsukulelecavacokeyboardtabbassdrumsharmonicaflute Guitar Pro
close

there isn't a video lesson for this song

chords

The Road

	  		
Main Riff 
G|-----------------| 
D|-----------------| 
A|-----------------| 
E|-7-7-7-7-7-7-7-7-| 

G|---------------------------------------------------------| 
D|---------------------------------------------------------| 
A|-------------------------------------2-2---------2-2-----| 
E|-7-7-7-7-5-5-0-0-7-7-7-7-5-5-0-0-7-7-----3-3-7-7----3-3-2| 

G|---------------------| 
D|---------------------| 
A|---------------------| 
E|-7-7-7-7-7-7-7-7-7-7-| 

G|----------------------------| 
D|----------------------------| 
A|-1-1------------------------|x2 
E|-----0h2-2-2h3-3-3-3p2-2-2--| 

G|-----------------------------| 
D|-----------------------------| 
A|-1-1-------------------------| 
E|-----0h2-2-2h3-3-3-3-3-3-3-3-| 

G|--------------------------| 
D|--------------------------| 
A|-3-3----------------------| 
E|-----2-2-1-1-3-3-6-6-5-5--| 



************************************ 

| h  Hammer-on 
| p  Pull-off 

************************************ 
		  

See also:

bass Soundtracks - James Bond - Theme bass Soundtracks - Seinfeld Theme bass Soundtracks - Addams Family - Theme bass Bouncing Souls - Serenity bass Soundtracks - Endless Summer 2 - Theme bass Soundtracks - Circus Theme
e-chords

Other versions:

bass We Are The Ocean - The Road bass Tenacious D - The Road
auto scroll beats size up size down change color hide chords drawings
tab show chords e-chords YouTube Clip e-chords hide all tabs e-chords go to top tab

share