Tame Impala

Mind Mischief

Tame Impala

bass Beginner beginner

by  BRUNBLAZKOWSKI

save to print version add songbook text version e-mail correct tuner
chordsukulelecavacokeyboardtabbassdrumsharmonicaflute Guitar Pro
close

there isn't a video lesson for this song

chords

Mind Mischief

	  		


Chorus/Main riff. 0:24 
G||----------------------------------------------------|         
D||---------11h13-11-----------------------------------| 
A||--9-11\-----------11p9h11-9---------------9----9-11-| 
E||--------------------------------------9h11-9h11-----| 

G||-------------------------------------------------| 
D||---11h13-11--------------------------------------| 
A||------------11--13--9---------------9----9-11----| 
E||--------------------------------9h11-9h11--------| 

G||----------------------------------------------| 
D||---11h13-11-----------------------------------| 
A||------------11p9h11-9---------------9----9-11-| 
E||--------------------------------9h11-9h11-----| 

G||-------------------------------------------------| 
D||---11h13-11--------------------------------------| 
A||------------11--13--9---------------9----9-11----| 
E||--------------------------------9h11-9h11--------| 


        1:12 
G||----------------------------------------------------| 
D||---------11h13-11-----------------------------------| 
A||--9-11\-----------11p9h11-9---------------9----9-11-| 
E||--------------------------------------9h11-9h11-----| 

G||-------------------------------------------------| 
D||---11h13-11--------------------------------------| 
A||------------11--13--9---------------9----9-11----| 
E||--------------------------------9h11-9h11--------| 

G||-------------------------------------------| 
D||---11h13-11--------------------------------| 
A||------------11---9---------------9----9-11-| 
E||-----------------------------9h11-9h11-----| 

G||-----------------------------------------| 
D||---11h13-11------------------------------| 
A||------------11--13--9---------------9----| 
E||--------------------------------9h11-----| 


        1:59 
G||-------------------------------------------------| 
D||---------11h13-11--------------------------------| 
A||--9-11\-----------11---9---------------9----9-11-| 
E||-----------------------------------9h11-9h11-----| 

G||-------------------------------------------------| 
D||---11h13-11--------------------------------------| 
A||------------11--13--9---------------9----9-11----| 
E||--------------------------------9h11-9h11--------| 

G||-------------------------------------------------| 
D||---------11h13-11--------------------------------| 
A||--9-11\-----------11---9---------------9----9-11-| 
E||-----------------------------------9h11-9h11-----| 

G||-----------------------------------| 
D||---11h13-11------------------------| 
A||------------11--13--9--------------| 
E||-----------------------------------|                  

G||-------------------------------------------------| 
D||---------11h13-11--------------------------------| 
A||--9-11\-----------11---9---------------9----9-11-| 
E||-----------------------------------9h11-9h11-----| 

G||-------------------------------------------------| 
D||---11h13-11--------------------------------------| 
A||------------11--13--9---------------9----9-11----| 
E||--------------------------------9h11-9h11--------| 

G||-------------------------------------------------| 
D||---------11h13-11--------------------------------| 
A||--9-11\-----------11---9---------------9----9-11-| 
E||-----------------------------------9h11-9h11-----| 

G||-----------------------------------------| 
D||---11h13-11------------------------------| 
A||------------11--13--9---------------9----| 
E||--------------------------------9h11-----| 


G||-----------------------------| 
D||--9--9--99-9---8--8--88-8--8-| 
A||-----------------------------| 
E||-----------------------------| 

G||-------------------------------------| 
D||-9--9--11h13-11-9--8--8--88-8--8-----| 
A||-------------------------------------| 
E||-------------------------------------| 
   
G||-----------------------------| 
D||--9--9--99-9---8--8--88-8--8-| 
A||-----------------------------| 
E||-----------------------------| 

G||----------------------------| 
D||--9--9--9p8h9p8h9p6---------| 
A||-----------------------8----| 
E||----------------------------| 

G||-------------------------------------------------| 
D||---------11h13-11--------------------------------| 
A||--9-11\-----------11---9---------------9----9-11-| 
E||-----------------------------------9h11-9h11-----| 

G||-------------------------------------------------| 
D||---11h13-11--------------------------------------| 
A||------------11--13--9---------------9----9-11----| 
E||--------------------------------9h11-9h11--------| 

G||-------------------------------------------------| 
D||---------11h13-11--------------------------------| 
A||--9-11\-----------11---9---------------9----9-11-| 
E||-----------------------------------9h11-9h11-----| 

G||-----------------------------------| 
D||---11h13-11------------------------| 
A||------------11--13--9--------------| 
E||-----------------------------------| 


        3:38 
G||-----------------------------| 
D||--9--9--99-9---8--8--88-8--8-| 
A||-----------------------------| 
E||-----------------------------| 

G||-------------------------------------| 
D||-9--9--11h13-11-9--8--8--88-8--8-----| 
A||-------------------------------------| 
E||-------------------------------------| 
   
G||-----------------------------| 
D||--9--9--99-9---8--8--88-8--8-| 
A||-----------------------------| 
E||-----------------------------| 

G||----------------------------| 
D||--9--9--9p8h9p8h9p6---------| 
A||-----------------------8----| 
E||----------------------------| 

G||-----------------------------| 
D||--9--9--99-9---8--8--88-8--8-| 
A||-----------------------------| 
E||-----------------------------| 

G||-------------------------------------| 
D||-9--9--11h13-11-9--8--8--88-8--8-----| 
A||-------------------------------------| 
E||-------------------------------------| 
   
G||-----------------------------| 
D||--9--9--99-9---8--8--88-8--8-| 
A||-----------------------------| 
E||-----------------------------| 

G||--------13-------------------| 
D||--11h13-----11h13-11---------| 
A||---------------------11---9--| 
E||-----------------------------|  
		  

auto scroll beats size up size down change color hide chords drawings
tab show chords e-chords YouTube Clip e-chords hide all tabs e-chords go to top tab

share