Tame Impala

Led Zeppelin

Tame Impala

bass

by  PAULLET3

save to print version add songbook text version e-mail correct tuner
chordsukulelecavacokeyboardtabbassdrumsharmonicaflute Guitar Pro
close

there isn't a video lesson for this song

chords

Led Zeppelin

	  		 
 


0:10 
G||--------------------------------------------| 
D||--------------------------------------------| 
A||-5------5-5-5------5-5------5-5-5------5-5--| 
E||----5h7--------5h7------5h7--------5h7------| 

G||-----------------------------------------| 
D||------------9-7--------------------7-9---| 
A||------5-5-5-----9-5------5-5-5-7/9-------| 
E||--5h7----------------5h7-----------------| 

G||--------------------------------------------| 
D||--------------------------------------------| 
A||-5------5-5-5------5-5------5-5-5------5-5--| 
E||----5h7--------5h7------5h7--------5h7------| 

G||----------------------------------------------|| 
D||-------------12-12--10-------------------7-9--|| 
A||------5-5-5-------------5------5-5-5-7/9------|| 
E||--5h7----------------------5h7----------------|| 


0:31 
G||------------------------------------| 
D||------------------------------------| 
A||-10--10-10-10--10-10-10--10-10--10--| 
E||------------------------------------|  X3 

G||------7-9-7-9-7---7-9-7---7--|| 
D||--7-9-----------9-------9----|| 
A||-----------------------------|| 
E||-----------------------------|| 


0:41 
G||-----------------------------------------------| 
D||-----------------------------------------------| 
A||----5------5-5-5------5-5------5-5-5------5-5--| 
E||-5h7---5h7--------5h7------5h7--------5h7------| 

G||-----------------------------------------| 
D||------------9-7--------------------7-9---| 
A||------5-5-5-----9-5------5-5-5-7/9-------| 
E||--5h7----------------5h7-----------------| 

G||--------------------------------------------| 
D||--------------------------------------------| 
A||-5------5-5-5------5-5------5-5-5------5-5--| 
E||----5h7--------5h7------5h7--------5h7------| 

G||----------------------------------------------|| 
D||-------------12-12--10-------------------7-9--|| 
A||------5-5-5-------------5------5-5-5-7/9------|| 
E||--5h7----------------------5h7----------------|| 


1:02 
G||------------------------------------| 
D||------------------------------------| 
A||-10--10-10-10--10-10-10--10-10--10--| 
E||------------------------------------|  X3 

G||------7-9-7-9-7---7-9-7---7--|| 
D||--7-9-----------9-------9----|| 
A||-----------------------------|| 
E||-----------------------------|| 

1:12 
G||-------------------------------------------------------| 
D||-------------------------------------------------------| 
A||----5-5-----------5-5-----------5-5-----------5-5------| 
E||-5h7-----------5h7-----------5h7-----------5h7---------| 

1:23 
G||--------------------------------------------| 
D||--------------------------------------------| 
A||-5------5-5-5------5-5------5-5-5------5-5--| 
E||----5h7--------5h7------5h7--------5h7------| 

G||-----------------------------------------| 
D||------------9-7--------------------7-9---| 
A||------5-5-5-----9-5------5-5-5-7/9-------| 
E||--5h7----------------5h7-----------------| 

G||--------------------------------------------| 
D||--------------------------------------------| 
A||-5------5-5-5------5-5------5-5-5------5-5--| 
E||----5h7--------5h7------5h7--------5h7------| 

G||----------------------------------------------|| 
D||-------------12-12--10-------------------7-9--|| 
A||------5-5-5-------------5------5-5-5-7/9------|| 
E||--5h7----------------------5h7----------------|| 

1:44 
G||------------------------------------| 
D||------------------------------------| 
A||-10--10-10-10--10-10-10--10-10--10--| 
E||------------------------------------|  X2 

G||-------------------------------------------|| 
D||--------------------------------------7-9--|| 
A||-5------5-5-5------5-5------5-5-5-7/9------|| 
E||----5h7--------5h7------5h7----------------|| 

G||------------------------------------| 
D||------------------------------------| 
A||-10--10-10-10--10-10-10--10-10--10--| 
E||------------------------------------|  X2 

G||-12---12--12---12-12--12-12-------7-9-7-9-7---7-9-7---7--|| 
D||------------------------------7-9-----------9-------9----|| 
A||---------------------------------------------------------|| 
E||---------------------------------------------------------|| 

2:05 
G||--------------------------------------------| 
D||--------------------------------------------| 
A||-5------5-5-5------5-5------5-5-5------5-5--| 
E||----5h7--------5h7------5h7--------5h7------| 

G||-----------------------------------------|| 
D||------------9-7--------------------7-9---|| 
A||------5-5-5-----9-5------5-5-5-7/9-------|| 
E||--5h7----------------5h7-----------------|| 

G||-----------------------------| 
D||-----------------------------| 
A||-10--10--10---10-10--10--10--| 
E||-----------------------------|  X2 

G||--------------------------------------| 
D||--------------------------------------| 
A||-5------5-5-5------5-5----------5-7-9-| 
E||----5h7--------5h7-----3--4-5-7-------| 

G||------------------------|------------------------------| 
D||------------------------|------------------------------| 
A||-10--10--10---10--10-10-|-10--10--10-----10-10-10--10--| 
E||------------------------|------------------------------| 

G||------------12-12-12-12-12------7-9-7-9-7---7-9-7---7--|| 
D||----------------------------7-9-----------9-------9----|| 
A||-10--10--10--------------------------------------------|| 
E||-------------------------------------------------------|| 

2:36 
G||-------------------------------------------------| 
D||-------------------------------------------------| 
A||----5-5------5-5-5------5-5------5-5-5------5-5--| 
E||-5h7-----5h7--------5h7------5h7--------5h7------| 

G||---------------------------------------------||    (Repeat/FadeOut) 
D||-------------------12--12-------12--12-------|| 
A||----5-5-5------------------------------------|| 
E||---------------10--------10--10---------10\--||  
		  

auto scroll beats size up size down change color hide chords drawings
tab show chords e-chords YouTube Clip e-chords hide all tabs e-chords go to top tab

share