Stuart Hamm

Love Thang

Stuart Hamm

bass

by  RUTHLESS

save to print version add songbook text version e-mail correct tuner
chordsukulelecavacokeyboardtabbassdrumsharmonicaflute Guitar Pro
close

there isn't a video lesson for this song

chords

Love Thang

	  		P.h: Pinched Harmonic 
P: Pull Off 
H: Hammer-0n 
/: Slide Up 
\: Slide Down 
~: Let note(s) Ring (listen to it to get the timing) 
*: Very lightly play the note(s) 
 
Play the riffs in the order that they are listed. 
 
Here is the "Love Thang" Intro (Don't play the last three 
notes in this riff on the third time round) 
 
G--11-------------13--13------11--11~------------------------- 
D--14--14--13-----11--11-------9---9~------------------------- 
A--14--14--14-----12----------11--------11*------------------- X3 
E--------------0----------0-----------------0*-0*------------- 
 
 
G-----9--8---6----6--4--4----------9--8--6----6--------13------13- 
D-----9--9---7---7---6--6----------9--9--7--7----7/-14------14---- 
A------------0-------7-------------------0------------------------ 
E--9--------------------0--------9------------------------0------- 
 
-----14------16~---- 
--14-----14--------- 
-------------------- 
-------------------- 
if you bar the 16th fret on the D and G this bit 
can be easier. 
G---21--20--18~----16--16------------16-------------------- 
D---18------19~----18--16H18--18-18--16H18--16--14~-------- 
A---16-------0~-------------------------------------------- 
E-----------------------0---------------------------------- 
P.h 
G--21----------20~----21--------20-------20---21-----------------21~ 
D------18-----------------19----------19----------18----18---21----- 
A--16------16----------0------0-----0----------------19------------- 
E----------------------------------------------0-------------------- 
 
G--9--9-8-4-6----14-------------------------------------- 
D--9-------------------11H12P11--9--7--6~----6---7---9~-- 
A--------------0----0~-----------------7~----7---7---7~-- 
E--9---------------------------------------0---0---0----- 
 
--9---9-------9-----9-9--11---13---14P13-11------16------ 
----9----9/11-------9-9---9---11-------------14---------- 
-------------------------------0~------------------------ 
----------------9~------------------------------------0~- 
 
 
--------16--------16----16-- 
-----14--------14----------- 
---------------------------- 
--0--------0---------0------ 
 
G-------16----16---16------16------16-----16---- 
D----14-----14----------14------14-------------- 
A--16-----16-----16---0-------0--------0-------- 
E----------------------------------------------- 
 
------16------16-----16-------16------16---16---- 
---14------14--------------14------14------------ 
------------------------------------------------- 
-0-------0--------0------0-------0--------0------ 
 
G-------16----16---16------16------18----16--- 
D----14-----14----------14------14----14------ 
A--16-----16-----16---0-------0--------------- 
E--------------------------------------------- 
 
--------16-------18-----16-------16-----16-18--21 
-----14-------14----14--------14----------------- 
------------------------------------------------- 
---0-------0---------------0--------0------------ 
 
---------21-------21----21-------21-------21---------- 
------18-------18-------------19------19--------19H21- 
---16-------16------16------0-------0--------0-------- 
------------------------------------------------------ 
 
------21----21---21------21------21---21------- 
---21-----21----------21-------21-------------- 
----------------------------------------------- 
0-------0------0----0-------0------0----------- 
 
--------21-------21---21------21-----21---------- 
-----18-------18-----------19-----19------19H21-- 
--16-------16------16----0------0------0--------- 
------------------------------------------------- 
 
------21------21-----21----21- 
----21------21-----21-----21-- 
------------------------------ 
0--------0-------0------0-----  
 
 

		  

Full key step upFull key step up
Half key step upHalf key step up
Half key step downHalf key step down
Full key step downFull key step down
hide glossary

See also:

bass Guns N' Roses - Welcome to The Jungle bass Creed - One Last Breath bass The Offspring - Want You Bad bass Aerosmith - I Don't Want To Miss A Thing bass Aerosmith - Crazy bass Aerosmith - Dude Looks Like A Lady
e-chords

Other versions:

bass Stuart Hamm - Love Thang
auto scroll beats size up size down change color hide chords drawings
tab show chords e-chords YouTube Clip e-chords hide all tabs e-chords go to top tab

share