Stratovarius

Galaxies

Stratovarius

bass

by  TAMAMOREIRA

save to print version add songbook text version e-mail correct tuner
chordsukulelecavacokeyboardtabbassdrumsharmonicaflute Guitar Pro
close

there isn't a video lesson for this song

chords

Galaxies

	  		Intro 
Gb|------------------------------------------------------------------------------| 
Db|------------------------------------------------------------------------------| 
Ab|---3-3-3-3-3-3-3-3-------------------1-1-1-1-1-1-1-1-----------------3-3-3-3--| 
Eb|---------------------4-4-4-4-4-4-4-4-----------------3-3-3-3-3-3-3-3----------| 

Gb|------------------------------------------------------------------------------| 
Db|------------------------------------------------------------------------------| 
Ab|-3-3-3-3-----------------1-1-1-1-1-1-1-1-----------------5-5-5-5-5-5-5-5-5-5--| 
Eb|---------4-4-4-4-4-4-4-4-----------------3-3-3-3-5-5-5-5----------------------| 

Vocals 
Gb|------------------------------------------------------------------------------| 
Db|------------------------------------------------------------------------------| 
Ab|--5-5-5-5-5-5-5-5-5-5-5-5-5-5-5-5-5-5-5-5-5-5-5-5-1-1-1-1-3-3-3-3-5-5-5-5-5---| 
Eb|------------------------------------------------------------------------------| 

Gb|--------------------------------------------------------|---| 
Db|--------------------------------------------------------|---| 
Ab|-5-5-5-5-5-5-5-5-5-5-5-5-5-5-5-5-5-5-5-1-1-1-1-3-3-3-3--|---| 
Eb|--------------------------------------------------------|---| 

Bridge 
Gb|------------------------------------------------------------------|---| 
Db|------------------------------------------------------------------|---| 
Ab|--1-1-1-1-3-3-3-3-5-5-5-5-5-5-5-5-1-1-1-1-1---------0-0-0-0-0-0---|---| 
Eb|--------------------------------------------3-3-3-3---------------|---| 

Chorus 
Gb|------------------------------------------------------------------------------| 
Db|------------------------------------------------------------------------------| 
Ab|----3-5-5-5-5-5-5-5-5-1-1-1-1-1-1---3-5-5-5-5-5-5-5-5-1-1-1-1-1-1-1-1---------| 
Eb|--1-------------------------------1-----------------------------------3-3-3---| 

Gb|------------------------------------------------------------------------------| 
Db|------------------------------------------------------------------------------| 
Ab|---------------------------------------------0-0-0-0-0-0-0---3-5-5-5-5-5-5-5--| 
Eb|-3-3-3-3-3-1-1-1-1-1-1-1-1-0-0-0-0-0-0-0-0-0---------------1------------------| 

Gb|------------------------------------------------------------------------------| 
Db|------------------------------------------------------------------------------| 
Ab|-5-1-1-1-1-1-1---3-5-5-5-5-5-5-5-5-1-1-1-1-1-1-1-1----------------------------| 
Eb|---------------1-----------------------------------3-3-3-3-3-3-3-3-1-1-1-1-1--| 

Gb|----------------------------------------|---| 
Db|----------------------------------------|---| 
Ab|-----------------------0-0-0-0-2-2-2-2--|---| 
Eb|-1-1-1-0-0-0-0-0-0-0-0------------------|---| 

Solo 
Gb|------------------------------------------------------------------------------| 
Db|------------------------------------------------------------------------------| 
Ab|---------------------3-3-3-3-3-3-3---5-----------------3-3-3-3-3-3-3-2--------| 
Eb|---0-0-0-0-0-0-0-0-0---------------3---0-0-0-0-0-0-0-0-----------------5-5-5--| 

Gb|--------------------------------------------------------|---| 
Db|--------------------------------------------------------|---| 
Ab|-------------5-5-5-5-5-5-5-5-3-3-3-3-3-3-3-3-0-0-0-0-0--|---| 
Eb|-5-5-5-5-5-5--------------------------------------------|---| 

Chorus 
Gb|------------------------------------------------------------------------------| 
Db|------------------------------------------------------------------------------| 
Ab|----3-5-5-5-5-5-5-5-5-1-1-1-1-1-1---3-5-5-5-5-5-5-5-5-1-1-1-1-1-1-1-1---------| 
Eb|--1-------------------------------1-----------------------------------3-3-3---| 

Gb|------------------------------------------------------------|---| 
Db|------------------------------------------------------------|---| 
Ab|---------------------------------------------0-0-0-0-0-0-0--|---| 
Eb|-3-3-3-3-3-1-1-1-1-1-1-1-1-0-0-0-0-0-0-0-0-0----------------|---| 



************************************ 

| b  Bend 

************************************ 
		  

See also:

bass Nightwish - Moondance bass HIM - Beyond Redemption bass Nightwish - Crimson Tide bass Tarja Turunen - Damned Vampires And Gothic Divines bass Nightwish - Nemo bass HIM - Buried alive by love
e-chords

Other versions:

bass Stratovarius - Galaxies
auto scroll beats size up size down change color hide chords drawings
tab show chords e-chords YouTube Clip e-chords hide all tabs e-chords go to top tab

share