Stone Temple Pilots

home > Stone Temple Pilot...

Plush Bass Tab

Stone Temple Pilots

Difficulty: IntermediateIntermediate

by rasecpc

tuner correct add songbook print version text version save to e-mail
chordsukulelecavacokeyboardtabbassdrummharmonicsflute Guitar Pro
chords

Plush

Year: 1992 - Album: Core

(Eric Kretz/ Robert Deleo/ Scott Weiland)

Key:  G More
Plush Key DD
Plush Key D#D#
Plush Key EE
Plush Key FF(one step down)
Plush Key F#F#(half step down)
Plush Key GG(original key)
Plush Key G#G#(half step up)
Plush Key AA(one step up)
Plush Key A#A#
Plush Key BB
Plush Key CC
Plush Key C#C#
	  Intro: 

G|-----------------------------------------------------------| 
D|-----------------------------------------------------------| 
A|--------1-----1-2-3-3--------2-3-4-4/5-----1----1-2-3-3----| 
E|-3--3-------3----------3---3------------3-----3----------3-| 

Verse 1: 

G|---------------------------------------------------| 
D|-------5-4-----2-3-3---3-2-------------------------| 
A|-----------5---------------3---5-6-6----6-6--6-8-8-| 
E|-3-3----------------------------------6------------| 

Verse 2: 

G|---------------------------------------------------| 
D|-------------------3-4-----------------------------| 
A|-5--5--3--2--3---5------5--5--3--2---5-------2-3-4-| 
E|---------------------------------------2-3-5-------| 

G|--------------------------------------------| 
D|-------------------3-4----------------------| 
A|-5--5--3--2--3---5------5--5--3--2--3---5-5-| 
E|--------------------------------------------| 

Chorus: 

G|--------------------5------------------------| 
D|------------------5---8-7--------------------| 
A|-6--6----6-6----6---------8-----8-8----8-8-7-| 
E|-------6------6---------------8------8-------| 


G|--------------------5-------------------------| 
D|------------------5---8-7---------------------| 
A|-6--6----6-6----6---------8-----8-8----8-10-8-| 
E|-------6------6---------------8------8--------| 

G|--------------------5------------------------| 
D|------------------5---8-7--------------------| 
A|-6--6----6-6----6---------8-----8-8----8-8-7-| 
E|-------6------6---------------8------8-------| 

G|--------------------5------------------------| 
D|------------------5---8-7--------------------| 
A|-6--6----6-6----6---------8-----8-8----8-8-8\| 
E|-------6------6---------------8------8-------| 

Pos-Chorus: 

G|--------------------------------------------------------| 
D|--------------------------------------------------------| 
A|---------------------------------------5-6-6-6-6-5-5-5\-| 
E|-3-3-3-3-3---3-1-1-1---1---0-0-0-0-0--------------------| (2x) 



	  

there isn't a video lesson for this song

request
Search
auto scroll beats size up size down change color hide chords drawings
tab show chords e-chords YouTube Clip e-chords hide all tabs e-chords go to top tab