Sonic Youth

Androgynous Mind

Sonic Youth

bass

by  JOV-CORREA

save to print version add songbook text version e-mail correct tuner
chordsukulelecavacokeyboardtabbassdrumsharmonicaflute Guitar Pro
close

there isn't a video lesson for this song

chords

Androgynous Mind

	  		
Intro 
G|---------------------------------1215-15------------| 
D|--17/14-14----0-0-0-----12/9-9--------------0-0-0---| 
A|----------------------------------------------------| 
E|----------------------------------------------------| 

vocals begin. 
G|-------------------------------12-1215-15-----------| 
D|--17-14-14----0-0-0----12-9------------------0-0-0--| 
A|----------------------------------------------------| 
E|----------------------------------------------------| 

G|---------------------------------------------15/12-12-912----------| 
D|--12/9-9------17/14-14-14----0-0-0---1215------------------0-0-0---| 
A|-------------------------------------------------------------------| 
E|-------------------------------------------------------------------| 

Chorus 
G|--------------------1215-15--15----------| 
D|-1714-14---0-0-0-----------------0-0-0---| 
A|-----------------------------------------| 
E|-----------------------------------------| 

Verse 
G|----------1215-15-12-9----------12-1215-15-15-15/------------| 
D|--12-9--------------------0-0-0-----------------------0-0-0--| 
A|-------------------------------------------------------------| 
E|-------------------------------------------------------------| 

Chorus 
G|----------15/12-12-12---1012----------129-9/12-15-9-----------| 
D|--1012-------------------------0-0-0------------------0-0-0---| 
A|--------------------------------------------------------------| 
E|--------------------------------------------------------------| 

G|-------------12/15-15-15--------| 
D|--12/9-9-9----------------0-0-0-| 
A|--------------------------------| 
E|--------------------------------| 

Outro 
G|-------------------------------------------15----| 
D|--7-7-7-7-7-7-12-12-12-12-12-9-9-9-9-9-9-9-------| 
A|-------------------------------------------------| 
E|-------------------------------------------------| 



************************************ 

| /  Slide up 

************************************ 
		  

See also:

bass Guano Apes - Lord Of The Boards bass Finch - -what It Is To Burn 95%- bass The Clash - London Calling bass Steve Vai - For The love Of God bass Fastball - Out Of My Head bass The Ataris - I Remember You
e-chords

Other versions:

bass Sonic Youth - Androgynous Mind
auto scroll beats size up size down change color hide chords drawings
tab show chords e-chords YouTube Clip e-chords hide all tabs e-chords go to top tab

share