Slipknot

home > Slipknot

No Life Bass Tab

Slipknot

Difficulty: nolevelnolevel

by VELHO

tuner correct add songbook print version text version save to e-mail
chordsukulelecavacokeyboardtabbassdrumsharmonicsflute Guitar Pro
chords

No Life

  		TUNE DOWN (B,E,A,D) 

INTRO 
D)---------------------------------- 
A)---------------------------------- 
E)---------------------------------- 
B)------5-6-7-8-9-5---5-6-7-8-9-4--- 

VERSE 
------------------------------------ 
------------------------------------ 
------------------------------------ 
-000-3-00-5-000-1-00---------------- 

Chorus 
------------------------------------ 
------------------------------------ 
------------------------------------ 
3-2-4-3------3-2-4-3---------------- 

AFTER Chorus 
------------------------------------ 
------------------------------------ 
------------------------------------ 
-2345---2345------------------------ 

FILL 
------------------------------------------------ 
------------------------------------------------ 
------------------------------------------------ 
333-0-0-0---4-4-4-1-1-1-3-3-3-0-0-3--4-4-4-1-1-1 

AFTER FILL 
------------------------------------ 
------------------------------------ 
------------------------------------ 
000-0000-000-00000-0000------------- 

OUTRO 
------------------------------------ 
------------------------------------ 
------------------------------------ 
3243-3243-3243-3243-3243-3243------- 
	  

Full key step upFull key step up
Half key step upHalf key step up
Half key step downHalf key step down
Full key step downFull key step down
Search Paypal
auto scroll beats size up size down change color hide chords drawings
tab show chords e-chords YouTube Clip e-chords hide all tabs e-chords go to top tab