Slipknot

home > Slipknot

Circle Bass Tab

Slipknot

Difficulty: BeginnerBeginner

by Pizzatto

tuner correct add songbook print version text version save to e-mail
chordsukulelecavacokeyboardtabbassdrumsharmonicsflute Guitar Pro
chords

Circle

Key:  E5 More
Circle Key B5B5
Circle Key C5C5
Circle Key C#5C#5
Circle Key D5D5(one step down)
Circle Key D#5D#5(half step down)
Circle Key E5E5(original key)
Circle Key F5F5(half step up)
Circle Key F#5F#5(one step up)
Circle Key G5G5
Circle Key G#5G#5
Circle Key A5A5
Circle Key A#5A#5
  		Tom: EADG 

Intro 

G|---------------------------------------------------------------| 
D|---------------------------------------------------------------| 
A|---------------------------------------------------------------| 
E|--10-8-7-5-3-5/12--------10-8-7-5-3-5/12-----------------------| 

G|---------------------------------------------------------------| 
D|---------------------------------------------------------------| 
A|---------------------------------------------------------------| 
E|--3-5-7-8-10-8/12--------10-8-7-5-3-5/12-----------------------| 

Verso 

G|-----------------| 
D|-----------------| 
A|-----------------| 
E|--3-5-2-3-(0)12--| 

Refrão x3 

G|---------------| 
D|---------------| 
A|--5~-0~--3~-7~-| 
E|---------------| 

Depois do Primeiro Refrão 

G|-----------| 
D|-----------| 
A|-----7-----| 
E|--3-----0--| 


Depois do Segundo Refrão, repetir e seguir tocando mais fraco até o sólo de bateria. 

G|--------------| 
D|--------------| 
A|---3-------7--| 
E|------3-------| 


	  

Search Paypal
auto scroll beats size up size down change color hide chords drawings
tab show chords e-chords YouTube Clip e-chords hide all tabs e-chords go to top tab