Sleaford Mods

Dregs

Sleaford Mods

bass

by  LINEKERS

save to print version add songbook text version e-mail correct tuner
chordsukulelecavacokeyboardtabbassdrumsharmonicaflute Guitar Pro
close

there isn't a video lesson for this song

chords

Dregs

	  		Intro 

G|--------------------------------| 
D|--------------------------------| 
A|----------------3-0---2---0-2-3-| 
E|--------------------------------| 

verse 1 

G|--------------------------------| 
D|--------------------------------| 
A|3-0---2---0-2-3-3-0---2---0-2-3-| 
E|--------------------------------| 

Chorus 

G|--------------------------------| 
D|--------------------------------| 
A|3-0---2---0-2-3-3-0---2---0-2-3-| 
E|--------------------------------| 

Bridge 

G|--------------------------------| 
D|--------------------------------| 
A|3-0---2---0-2-3-3-0---2---0-2-3-| 
E|--------------------------------| 

verse 2 

G|--------------------------------| 
D|--------------------------------| 
A|3-0---2---0-2-3-3-0---2---0-2-3-| 
E|--------------------------------| 

Chorus 

G|--------------------------------| 
D|--------------------------------| 
A|3-0---2---0-2-3-3-0---2---0-2-3-| 
E|--------------------------------| 


Bridge 

G|--------------------------------| 
D|--------------------------------| 
A|3-0---2---0-2-3-3-0---2---0-2-3-| 
E|--------------------------------| 


verse 3 

G|--------------------------------| 
D|--------------------------------| 
A|3-0---2---0-2-3-3-0---2---0-2-3-| 
E|--------------------------------| 


Chorus 

G|--------------------------------| 
D|--------------------------------| 
A|3-0---2---0-2-3-3-0---2---0-2-3-| 
E|--------------------------------| 

Outro 

G|--------------------------------| 
D|--------------------------------| 
A|3-0---2---0-2-3-3-0---2---0-2-3-| 
E|--------------------------------| 

Cheers And Enjoy! 
Roland 
		  

auto scroll beats size up size down change color hide chords drawings
tab show chords e-chords YouTube Clip e-chords hide all tabs e-chords go to top tab

share