Sleaford Mods

Big Burt

Sleaford Mods

bass

by  DEIVCAVALCANTI

save to print version add songbook text version e-mail correct tuner
chordsukulelecavacokeyboardtabbassdrumsharmonicaflute Guitar Pro
close

there isn't a video lesson for this song

chords

Big Burt

	  		
Intro 

G|--------------------------------| 
D|--------------------------------| 
A|--------------------------------| x2 
E|--------------------------------| 

G|--------------------------------| 
D|--------------------------------| 
A|3--5--3--5--3--5--3--5--5--7----| x3 
E|--------------------------------| 


verse 1 

G|--------------------------------| 
D|--------------------------------| 
A|3--5--3--5--3--5--3--5--5--7----| x16 
E|--------------------------------| 

verse 2 

G|--------------------------------| 
D|--------------------------------| 
A|3--5--3--5--3--5--3--5--5--7----| x3 
E|--------------------------------| 

G|--------------------------------| 
D|--------------------------------| 
A|3--5--3--5--3--5--3--5--5--3----| 
E|--------------------------------| 

G|--------------------------------| 
D|----------------------------2---| 
A|2-------------------------------| 
E|--------------------------------| 

G|--------------------------------| 
D|--------------------------------| 
A|3---------------2-------1-------| 
E|--------------------------------| 

G|--------------------------------| 
D|----------------------------2---| 
A|2-------------------------------| 
E|--------------------------------| 

G|--------------------------------| 
D|--------------------------------| 
A|3---------------2-------1-------| 
E|--------------------------------| 

G|--------------------------------| 
D|----------------------------2---| 
A|2-------------------------------| 
E|--------------------------------| 

G|--------------------------------| 
D|--------------------------------| 
A|3-------------------------------| 
E|----------------3-------1-------| 

G|--------------------------------| 
D|--------------------------------| 
A|3--5--3--5--3--5--3--5--5--7----| x2 
E|--------------------------------| 

Outro 

G|--------------------------------| 
D|--------------------------------| 
A|3--5--3--5--3--5--3--5--5--7----| x6 
E|--------------------------------| 

G|--------------------------------| 
D|--------------------------------| 
A|3--5--3--5--3--5--3--5--3--5----| x4 
E|--------------------------------| 

Cheers And Enjoy! 
Roland 
		  

auto scroll beats size up size down change color hide chords drawings
tab show chords e-chords YouTube Clip e-chords hide all tabs e-chords go to top tab

share