Skunk Anansie

Lately

Skunk Anansie

bass

by  HEBEALMEIDA

save to print version add songbook text version e-mail correct tuner
chordsukulelecavacokeyboardtabbassdrumsharmonicaflute Guitar Pro
close

there isn't a video lesson for this song

chords

Lately

	  		Intro 
G|------------------------------------------------------------------| 
D|------------------------------------------------------------------| 
A|-3-3--3-3--3-3--3-3-------------------------------------------5-5-| 
E|----------------------0-0--0-0--0-0--0-0--5-5--5-5--5-5--5-5------| 

G|-----------------| 
D|-----------------| 
A|--5-5--5-5--5-5--| 
E|-----------------| 

Verse 
 |4x                                                           | 
G|-------------------------------------------------------------| 
D|-------------------------------------------------------------| 
A|-3-3--3-3--3-3--3-3--2-2--2-2--2-2--2-2--0-0--0-0--0-0--0-0--| 
E|-------------------------------------------------------------| 

  ______________           ____ 
 |1st, 2nd, 3rd           |4th 
G|------------------------|------------------------------------------| 
D|-----------------------*|------------------------------------------| 
A|-----------------------*|-5-5-7-5-7-5-7-5-----------------8-8-8-8--| 
E|-0-1--1-1--1-1--1-1--0--|-----------------1-1-1-1-1-1-1-1----------| 

G|----------------------------------| 
D|----------------------------------| 
A|-8-8-8-8-8-8-8-8-8-8-8-8-8-8-8-8--| 
E|----------------------------------| 

Chorus 
 |2x 
G|-----------------------------------------------------------------| 
D|-----------------------------------------------------------------| 
A|-3-3--3-3--3-3--3-3------------------------------------------5-5-| 
E|---------------------0-0--0-0--0-0--0-0--5-5--5-5--5-5--5-5------| 

                | 
G|--------------|-----------------------------------| 
D|-------------*|-----------------------------------| 
A|-7-5-7-5-7-5-*|--------------------5--------8-----| 
E|--------------|-1-1-1-1-1-1-1-1-------------------| 

Verse 
 |2x                                                           | 
G|-------------------------------------------------------------| 
D|-------------------------------------------------------------| 
A|-3-3--3-3--3-3--3-3--2-2--2-2--2-2--2-2--0-0--0-0--0-0--0-0--| 
E|-------------------------------------------------------------| 

  ____                     ____ 
 |1st                     |2nd 
G|------------------------|-----------------------------------------| 
D|-----------------------*|-----------------------------------------| 
A|-----------------------*|-5-5-7-5-7-5-7-5-----------------8-8-8-8-| 
E|-0-1--1-1--1-1--1-1--0--|-----------------1-1-1-1-1-1-1-1---------| 
  

G|----------------------------------| 
D|----------------------------------| 
A|-8-8-8-8-8-8-8-8-8-8-8-8-8-8-8-8--| 
E|----------------------------------| 

Chorus 
 |2x 
G|-----------------------------------------------------------------| 
D|-----------------------------------------------------------------| 
A|-3-3--3-3--3-3--3-3------------------------------------------5-5-| 
E|---------------------0-0--0-0--0-0--0-0--5-5--5-5--5-5--5-5------| 

                | 
G|--------------|-----------------------------------------------------| 
D|-------------*|-----------------------------------------------------| 
A|-7-5-7-5-7-5-*|-----------------8-8-8-8-8-8-8-8-8-8-8-8-8-8-8-8-8-8-| 
E|--------------|-1-1-1-1-1-1-1-1-------------------------------------| 

G|------| 
D|------| 
A|-8-8--| 
E|------| 

Bridge 
                                          |2x 
G|----------------------------------------|-------------------------| 
D|----------------------------------------|-------------------------| 
A|----------------0-2-3------3-2-0--------|--------3-2-0------0-2-3-| 
E|-5-5--0-0--3-3--------0-----------1--1--|--5-5----------3---------| 

                    | 
G|------------------|----------------------------------| 
D|-----------------*|----------------------------------| 
A|----3-2-0--------*|----------------------------------| 
E|-0----------1--1--|-1-0-1-0-1-0-1-0-1-0-1-0-1-0-1-0--| 

Solo 
 |2x                                                           | 
G|-------------------------------------------------------------| 
D|-------------------------------------------------------------| 
A|-3-3--3-3--3-3--3-3--2-2--2-2--2-2--2-2--0-0--0-0--0-0--0-0--| 
E|-------------------------------------------------------------| 

  ____                     ____ 
 |1st                     |2nd 
G|------------------------|-----------------------------------------| 
D|-----------------------*|-----------------------------------------| 
A|-----------------------*|-5-5-7-5-7-5-7-5-----------------8-8-8-8-| 
E|-0-1--1-1--1-1--1-1--0--|-----------------1-1-1-1-1-1-1-1---------| 

G|----------------------------------| 
D|----------------------------------| 
A|-8-8-8-8-8-8-8-8-8-8-8-8-8-8-8-8--| 
E|----------------------------------| 

Outro 
 |4x 
G|-----------------------------------------------------------------| 
D|-----------------------------------------------------------------| 
A|-3-3--3-3--3-3--3-3------------------------------------------5-5-| 
E|---------------------0-0--0-0--0-0--0-0--5-5--5-5--5-5--5-5------| 

                | 
G|--------------|-----------------------------------| 
D|-------------*|-----------------------------------| 
A|-7-5-7-5-7-5-*|--------------------5--------------| 
E|--------------|-1-1-1-1-1-1-1-1-------------------| 

************************************ 

| x   Dead note 
| g   Grace note 
| (n) Ghost note 
| h   Hammer-on 
| p   Pull-off 
| r   Release 
| >   Accented note 
| t   Tapping 
| b   Bend 
| br  Bend release 
| pb  Pre-bend 
| pbr Pre-bend release 
| /   Slide up 
| \   Slide down 
| ~   Vibrato 
| s   Slap 
| P   Pop 
| PM  Palm mute 
| TR  Trill 
| N   Tremolo 

************************************ 
		  

See also:

bass Queen - A King Of Magic bass The Beatles - I Want You (She's So Heavy) bass Eric Clapton - Cocaine bass Eagles - Lyin' Eyes bass The Beatles - Hello , Goodbye bass The Beatles - All My Loving
e-chords

Other versions:

bass Skunk Anansie - Lately
auto scroll beats size up size down change color hide chords drawings
tab show chords e-chords YouTube Clip e-chords hide all tabs e-chords go to top tab

share